ISO-10303-21;
HEADER;
FILE_DESCRIPTION (( 'STEP AP203' ),
    '1' );
FILE_NAME ('D020308-v2_aLIGO_SUS_HSTS_Lower Blade Clamp, Lower Side.STEP',
    '2010-06-24T14:52:10',
    ( 'Dwayne Giardina' ),
    ( 'CA Institute of Technology' ),
    'SwSTEP 2.0',
    'SolidWorks 2009',
    '' );
FILE_SCHEMA (( 'CONFIG_CONTROL_DESIGN' ));
ENDSEC;

DATA;
#1 = PLANE ( 'NONE',  #198 ) ;
#2 = CARTESIAN_POINT ( 'NONE',  ( -0.1970000000000000100, -6.829619984160658000E-017, -0.1121003950000000900 ) ) ;
#3 = DIRECTION ( 'NONE',  ( -1.000000000000000000, 4.818676322157798900E-017, 0.0000000000000000000 ) ) ;
#4 = DIRECTION ( 'NONE',  ( 4.818676322157798900E-017, 1.000000000000000000, -0.0000000000000000000 ) ) ;
#5 = DIRECTION ( 'NONE',  ( 1.224606353822377500E-016, -1.000000000000000000, 0.0000000000000000000 ) ) ;
#6 = DIRECTION ( 'NONE',  ( 0.0000000000000000000, 0.0000000000000000000, 1.000000000000000000 ) ) ;
#7 = DIRECTION ( 'NONE',  ( -0.0000000000000000000, 1.000000000000000000, -0.0000000000000000000 ) ) ;
#8 = DIRECTION ( 'NONE',  ( 1.000000000000000000, 1.224606353822377500E-016, 0.0000000000000000000 ) ) ;
#9 = VERTEX_POINT ( 'NONE', #85 ) ;
#10 = VERTEX_POINT ( 'NONE', #73 ) ;
#11 = CARTESIAN_POINT ( 'NONE',  ( 0.1970000000000000100, 0.1970000000000000400, -0.1121003950000000900 ) ) ;
#12 = CARTESIAN_POINT ( 'NONE',  ( 0.1970000000000000100, -6.829619984160658000E-017, -0.1121003950000001300 ) ) ;
#13 = SECURITY_CLASSIFICATION_LEVEL ( 'unclassified' ) ;
#14 = CARTESIAN_POINT ( 'NONE',  ( -0.1970000000000000100, -6.829619984160658000E-017, -0.1968503950000000700 ) ) ;
#15 = CARTESIAN_POINT ( 'NONE',  ( -0.1970000000000000100, 0.1970000000000000400, -0.1968503950000000700 ) ) ;
#16 = CARTESIAN_POINT ( 'NONE',  ( 0.3543307086614173000, -2.073152488754191300E-020, -0.3937007900000000200 ) ) ;
#17 = DIRECTION ( 'NONE',  ( 0.0000000000000000000, 0.0000000000000000000, 1.000000000000000000 ) ) ;
#18 = DIRECTION ( 'NONE',  ( -0.0000000000000000000, 1.000000000000000000, -0.0000000000000000000 ) ) ;
#19 = DIRECTION ( 'NONE',  ( 0.0000000000000000000, 0.0000000000000000000, 1.000000000000000000 ) ) ;
#20 = DIRECTION ( 'NONE',  ( -0.0000000000000000000, 1.000000000000000000, -0.0000000000000000000 ) ) ;
#21 = VERTEX_POINT ( 'NONE', #45 ) ;
#22 = CARTESIAN_POINT ( 'NONE',  ( 0.3543307086614173000, 0.1970000000000000100, -0.3937007900000000200 ) ) ;
#23 = DIRECTION ( 'NONE',  ( -0.0000000000000000000, 1.000000000000000000, -0.0000000000000000000 ) ) ;
#24 = VERTEX_POINT ( 'NONE', #88 ) ;
#25 = APPROVAL_ROLE ( '' ) ;
#26 = APPROVAL_ROLE ( '' ) ;
#27 = APPROVAL_STATUS ( 'not_yet_approved' ) ;
#28 = APPLICATION_PROTOCOL_DEFINITION ( 'international standard', 'config_control_design', 1994, #41 ) ;
#29 = APPROVAL_STATUS ( 'not_yet_approved' ) ;
#30 = APPROVAL_ROLE ( '' ) ;
#31 = VERTEX_POINT ( 'NONE', #11 ) ;
#32 = CARTESIAN_POINT ( 'NONE',  ( -0.3543307086614173000, -4.339156371811573000E-017, 0.0000000000000000000 ) ) ;
#33 = CARTESIAN_POINT ( 'NONE',  ( -0.1970000000000000100, -6.829619984160658000E-017, -0.2816003950000000000 ) ) ;
#34 = VERTEX_POINT ( 'NONE', #33 ) ;
#35 = DIRECTION ( 'NONE',  ( 1.000000000000000000, -5.850897023817385100E-020, -0.0000000000000000000 ) ) ;
#36 = DATE_TIME_ROLE ( 'classification_date' ) ;
#37 = VERTEX_POINT ( 'NONE', #32 ) ;
#38 = CARTESIAN_POINT ( 'NONE',  ( -0.3543307086614173000, 0.1970000000000000400, -0.3937007900000000200 ) ) ;
#39 = VERTEX_POINT ( 'NONE', #69 ) ;
#40 = VERTEX_POINT ( 'NONE', #76 ) ;
#41 = APPLICATION_CONTEXT ( 'configuration controlled 3d designs of mechanical parts and assemblies' ) ;
#42 = VERTEX_POINT ( 'NONE', #12 ) ;
#43 = VERTEX_POINT ( 'NONE', #38 ) ;
#44 = VERTEX_POINT ( 'NONE', #50 ) ;
#45 = CARTESIAN_POINT ( 'NONE',  ( -0.1970000000000000100, 0.1970000000000000400, -0.2816003950000000000 ) ) ;
#46 = DIRECTION ( 'NONE',  ( -0.0000000000000000000, 1.000000000000000000, -0.0000000000000000000 ) ) ;
#47 = CARTESIAN_POINT ( 'NONE',  ( -0.3543307086614173000, 0.1970000000000000400, -0.3937007900000000200 ) ) ;
#48 = MECHANICAL_CONTEXT ( 'NONE', #68, 'mechanical' ) ;
#49 = DIRECTION ( 'NONE',  ( -0.0000000000000000000, 1.000000000000000000, -0.0000000000000000000 ) ) ;
#50 = CARTESIAN_POINT ( 'NONE',  ( 0.1970000000000000100, 0.1970000000000000400, -0.2816003950000001100 ) ) ;
#51 = CARTESIAN_POINT ( 'NONE',  ( -0.1970000000000000100, -6.829619984160658000E-017, -0.1968503950000000700 ) ) ;
#52 = DIRECTION ( 'NONE',  ( 0.0000000000000000000, 0.0000000000000000000, 1.000000000000000000 ) ) ;
#53 = CARTESIAN_POINT ( 'NONE',  ( 0.3543307086614173000, 0.1970000000000000100, -0.3937007900000000200 ) ) ;
#54 = DIRECTION ( 'NONE',  ( -0.0000000000000000000, -1.000000000000000000, -0.0000000000000000000 ) ) ;
#55 = CARTESIAN_POINT ( 'NONE',  ( 0.3543307086614173000, 0.1970000000000000100, -0.3937007900000000200 ) ) ;
#56 = CARTESIAN_POINT ( 'NONE',  ( 0.0000000000000000000, 0.0000000000000000000, 0.0000000000000000000 ) ) ;
#57 = PLANE ( 'NONE',  #178 ) ;
#58 = DIRECTION ( 'NONE',  ( 1.000000000000000000, 1.224606353822377300E-016, -0.0000000000000000000 ) ) ;
#59 = CARTESIAN_POINT ( 'NONE',  ( -0.3543307086614173000, 0.1970000000000000400, -0.3937007900000000200 ) ) ;
#60 = DIRECTION ( 'NONE',  ( -0.0000000000000000000, 1.000000000000000000, -0.0000000000000000000 ) ) ;
#61 = CARTESIAN_POINT ( 'NONE',  ( -0.3543307086614173000, 0.1970000000000000400, -0.3937007900000000200 ) ) ;
#62 = PLANE ( 'NONE',  #172 ) ;
#63 = DIRECTION ( 'NONE',  ( -0.0000000000000000000, 1.000000000000000000, -0.0000000000000000000 ) ) ;
#64 = CARTESIAN_POINT ( 'NONE',  ( -0.1970000000000000100, 0.1970000000000000400, -0.2816003950000000000 ) ) ;
#65 = DIRECTION ( 'NONE',  ( -0.0000000000000000000, 1.000000000000000000, -0.0000000000000000000 ) ) ;
#66 = CARTESIAN_POINT ( 'NONE',  ( 0.0000000000000000000, 0.0000000000000000000, -0.3937007900000000200 ) ) ;
#67 = DIRECTION ( 'NONE',  ( -1.000000000000000000, 0.0000000000000000000, 0.0000000000000000000 ) ) ;
#68 = APPLICATION_CONTEXT ( 'configuration controlled 3d designs of mechanical parts and assemblies' ) ;
#69 = CARTESIAN_POINT ( 'NONE',  ( 0.3543307086614173000, -2.073152488754191300E-020, -0.3937007900000000200 ) ) ;
#70 = DIRECTION ( 'NONE',  ( 0.0000000000000000000, 0.0000000000000000000, 1.000000000000000000 ) ) ;
#71 = VERTEX_POINT ( 'NONE', #53 ) ;
#72 = DIRECTION ( 'NONE',  ( -0.0000000000000000000, 1.000000000000000000, -0.0000000000000000000 ) ) ;
#73 = CARTESIAN_POINT ( 'NONE',  ( 0.3543307086614173000, 0.1970000000000000100, 0.0000000000000000000 ) ) ;
#74 = PERSON_AND_ORGANIZATION_ROLE ( 'design_owner' ) ;
#75 = CARTESIAN_POINT ( 'NONE',  ( 0.3543307086614173000, 0.1970000000000000100, -0.3937007900000000200 ) ) ;
#76 = CARTESIAN_POINT ( 'NONE',  ( -0.1970000000000000100, 0.1970000000000000400, -0.1121003950000000700 ) ) ;
#77 = DIRECTION ( 'NONE',  ( 0.0000000000000000000, 0.0000000000000000000, 1.000000000000000000 ) ) ;
#78 = DIRECTION ( 'NONE',  ( 0.0000000000000000000, 0.0000000000000000000, 1.000000000000000000 ) ) ;
#79 = DIRECTION ( 'NONE',  ( 0.0000000000000000000, 0.0000000000000000000, 1.000000000000000000 ) ) ;
#80 = DIRECTION ( 'NONE',  ( 0.0000000000000000000, 0.0000000000000000000, 1.000000000000000000 ) ) ;
#81 = DIRECTION ( 'NONE',  ( 0.0000000000000000000, 0.0000000000000000000, 1.000000000000000000 ) ) ;
#82 = PERSON_AND_ORGANIZATION_ROLE ( 'creator' ) ;
#83 = PERSON_AND_ORGANIZATION_ROLE ( 'design_supplier' ) ;
#84 = PERSON_AND_ORGANIZATION_ROLE ( 'classification_officer' ) ;
#85 = CARTESIAN_POINT ( 'NONE',  ( -0.3543307086614173000, 0.1970000000000000400, 0.0000000000000000000 ) ) ;
#86 =( LENGTH_UNIT ( ) NAMED_UNIT ( * ) SI_UNIT ( $, .METRE. ) );
#87 = CARTESIAN_POINT ( 'NONE',  ( 0.1970000000000000100, 0.1970000000000000400, -0.1968503950000000900 ) ) ;
#88 = CARTESIAN_POINT ( 'NONE',  ( 0.3543307086614173000, -2.073152488754191300E-020, 0.0000000000000000000 ) ) ;
#89 = CARTESIAN_POINT ( 'NONE',  ( -0.1970000000000000100, 0.1970000000000000400, -0.1968503950000000700 ) ) ;
#90 = DIRECTION ( 'NONE',  ( -0.0000000000000000000, 1.000000000000000000, -0.0000000000000000000 ) ) ;
#91 = CARTESIAN_POINT ( 'NONE',  ( 0.3543307086614173000, -2.073152488754191300E-020, -0.3937007900000000200 ) ) ;
#92 = DIRECTION ( 'NONE',  ( -1.000000000000000000, 4.818676322157797600E-017, -0.0000000000000000000 ) ) ;
#93 = CARTESIAN_POINT ( 'NONE',  ( -0.1970000000000000100, 0.1970000000000000400, -0.1968503950000000700 ) ) ;
#94 = PLANE ( 'NONE',  #174 ) ;
#95 = CARTESIAN_POINT ( 'NONE',  ( -0.3543307086614173000, -4.339156371811573000E-017, -0.3937007900000000200 ) ) ;
#96 = CARTESIAN_POINT ( 'NONE',  ( 0.1970000000000000100, -6.829619984160658000E-017, -0.2816003950000000600 ) ) ;
#97 = DIRECTION ( 'NONE',  ( 0.0000000000000000000, 0.0000000000000000000, 1.000000000000000000 ) ) ;
#98 = APPLICATION_PROTOCOL_DEFINITION ( 'international standard', 'config_control_design', 1994, #68 ) ;
#99 = CARTESIAN_POINT ( 'NONE',  ( -0.3543307086614173000, -4.339156371811573000E-017, -0.3937007900000000200 ) ) ;
#100 = DIRECTION ( 'NONE',  ( 0.0000000000000000000, 0.0000000000000000000, 1.000000000000000000 ) ) ;
#101 = CARTESIAN_POINT ( 'NONE',  ( -0.3543307086614173000, 2.073152488754191300E-020, -0.3937007900000000200 ) ) ;
#102 = PLANE ( 'NONE',  #162 ) ;
#103 = PLANE ( 'NONE',  #201 ) ;
#104 = CARTESIAN_POINT ( 'NONE',  ( -0.1970000000000000100, 0.1970000000000000400, -0.1121003950000000900 ) ) ;
#105 = DIRECTION ( 'NONE',  ( -0.0000000000000000000, 1.000000000000000000, -0.0000000000000000000 ) ) ;
#106 = DIRECTION ( 'NONE',  ( -1.000000000000000000, 0.0000000000000000000, -0.0000000000000000000 ) ) ;
#107 = CARTESIAN_POINT ( 'NONE',  ( 0.1970000000000000100, -6.829619984160658000E-017, -0.1968503950000000900 ) ) ;
#108 = DIRECTION ( 'NONE',  ( -0.0000000000000000000, 1.000000000000000000, -0.0000000000000000000 ) ) ;
#109 = DIRECTION ( 'NONE',  ( 1.000000000000000000, 0.0000000000000000000, -0.0000000000000000000 ) ) ;
#110 = DIRECTION ( 'NONE',  ( -0.0000000000000000000, 0.0000000000000000000, -1.000000000000000000 ) ) ;
#111 = CARTESIAN_POINT ( 'NONE',  ( 0.0000000000000000000, 0.0000000000000000000, 0.0000000000000000000 ) ) ;
#112 = PERSON_AND_ORGANIZATION_ROLE ( 'creator' ) ;
#113 = DIRECTION ( 'NONE',  ( 0.0000000000000000000, 0.0000000000000000000, -1.000000000000000000 ) ) ;
#114 = DIRECTION ( 'NONE',  ( 0.0000000000000000000, 0.0000000000000000000, 1.000000000000000000 ) ) ;
#115 = DIRECTION ( 'NONE',  ( 1.000000000000000000, 0.0000000000000000000, 0.0000000000000000000 ) ) ;
#116 = DIRECTION ( 'NONE',  ( 0.0000000000000000000, 0.0000000000000000000, 1.000000000000000000 ) ) ;
#117 = CARTESIAN_POINT ( 'NONE',  ( 0.3543307086614173000, 0.1970000000000000100, 0.0000000000000000000 ) ) ;
#118 = DATE_TIME_ROLE ( 'creation_date' ) ;
#119 = APPROVAL_STATUS ( 'not_yet_approved' ) ;
#120 = DIRECTION ( 'NONE',  ( -0.0000000000000000000, 1.000000000000000000, -0.0000000000000000000 ) ) ;
#121 = CARTESIAN_POINT ( 'NONE',  ( 0.1970000000000000100, 0.1970000000000000400, -0.1968503950000000900 ) ) ;
#122 = DIRECTION ( 'NONE',  ( -0.0000000000000000000, 1.000000000000000000, -0.0000000000000000000 ) ) ;
#123 = CARTESIAN_POINT ( 'NONE',  ( 0.1970000000000000100, -6.829619984160658000E-017, -0.1968503950000000900 ) ) ;
#124 = CARTESIAN_POINT ( 'NONE',  ( 0.1970000000000000100, 0.1970000000000000400, -0.1121003950000001000 ) ) ;
#125 = DIRECTION ( 'NONE',  ( -0.0000000000000000000, 1.000000000000000000, -0.0000000000000000000 ) ) ;
#126 = CARTESIAN_POINT ( 'NONE',  ( 0.1970000000000000100, 0.1970000000000000400, -0.1968503950000000900 ) ) ;
#127 = DIRECTION ( 'NONE',  ( 0.0000000000000000000, 0.0000000000000000000, 1.000000000000000000 ) ) ;
#128 = DIRECTION ( 'NONE',  ( 0.0000000000000000000, 0.0000000000000000000, 1.000000000000000000 ) ) ;
#129 = CARTESIAN_POINT ( 'NONE',  ( 0.1970000000000000100, 0.1970000000000000400, -0.1968503950000000900 ) ) ;
#130 = DIRECTION ( 'NONE',  ( -1.000000000000000000, 4.818676322157797600E-017, -0.0000000000000000000 ) ) ;
#131 =( NAMED_UNIT ( * ) SI_UNIT ( $, .STERADIAN. ) SOLID_ANGLE_UNIT ( ) );
#132 = VERTEX_POINT ( 'NONE', #96 ) ;
#133 =( NAMED_UNIT ( * ) PLANE_ANGLE_UNIT ( ) SI_UNIT ( $, .RADIAN. ) );
#134 = DIRECTION ( 'NONE',  ( 0.0000000000000000000, 0.0000000000000000000, 1.000000000000000000 ) ) ;
#135 = DIRECTION ( 'NONE',  ( -0.0000000000000000000, 1.000000000000000000, -0.0000000000000000000 ) ) ;
#136 = DIRECTION ( 'NONE',  ( -0.0000000000000000000, -1.000000000000000000, -0.0000000000000000000 ) ) ;
#137 = DIRECTION ( 'NONE',  ( -1.000000000000000000, 0.0000000000000000000, -0.0000000000000000000 ) ) ;
#138 = CARTESIAN_POINT ( 'NONE',  ( -0.3543307086614173000, 0.1970000000000000400, 0.0000000000000000000 ) ) ;
#139 = VERTEX_POINT ( 'NONE', #95 ) ;
#140 = CARTESIAN_POINT ( 'NONE',  ( -0.3543307086614173000, -4.339156371811573000E-017, -0.3937007900000000200 ) ) ;
#141 = VERTEX_POINT ( 'NONE', #2 ) ;
#142 = DIRECTION ( 'NONE',  ( 0.0000000000000000000, 0.0000000000000000000, -1.000000000000000000 ) ) ;
#143 = CARTESIAN_POINT ( 'NONE',  ( -0.3543307086614173000, -4.339156371811573000E-017, 0.0000000000000000000 ) ) ;
#144 = CARTESIAN_POINT ( 'NONE',  ( -0.3543307086614173000, 2.073152488754191300E-020, 0.0000000000000000000 ) ) ;
#145 = DIRECTION ( 'NONE',  ( 0.0000000000000000000, 0.0000000000000000000, 1.000000000000000000 ) ) ;
#146 = CARTESIAN_POINT ( 'NONE',  ( -0.1970000000000000100, 0.1970000000000000400, -0.1968503950000000700 ) ) ;
#147 = CARTESIAN_POINT ( 'NONE',  ( -0.3543307086614173000, -4.339156371811573000E-017, -0.3937007900000000200 ) ) ;
#148 = DIRECTION ( 'NONE',  ( -0.0000000000000000000, 1.000000000000000000, -0.0000000000000000000 ) ) ;
#149 =( CONVERSION_BASED_UNIT ( 'INCH', #295 ) LENGTH_UNIT ( ) NAMED_UNIT ( #383 ) );
#150 = CARTESIAN_POINT ( 'NONE',  ( 0.1970000000000000100, 0.1970000000000000400, -0.2816003950000001100 ) ) ;
#151 = EDGE_CURVE ( 'NONE', #141, #40, #342, .T. ) ;
#152 = AXIS2_PLACEMENT_3D ( 'NONE', #126, #72, #128 ) ;
#153 = AXIS2_PLACEMENT_3D ( 'NONE', #107, #108, #116 ) ;
#154 = AXIS2_PLACEMENT_3D ( 'NONE', #146, #7, #97 ) ;
#155 = EDGE_CURVE ( 'NONE', #42, #31, #238, .T. ) ;
#156 = EDGE_CURVE ( 'NONE', #37, #24, #363, .T. ) ;
#157 = AXIS2_PLACEMENT_3D ( 'NONE', #87, #135, #145 ) ;
#158 = EDGE_CURVE ( 'NONE', #139, #39, #287, .T. ) ;
#159 = APPROVAL ( #27, 'UNSPECIFIED' ) ;
#160 = EDGE_CURVE ( 'NONE', #42, #132, #351, .T. ) ;
#161 = EDGE_CURVE ( 'NONE', #132, #42, #367, .T. ) ;
#162 = AXIS2_PLACEMENT_3D ( 'NONE', #101, #113, #106 ) ;
#163 = EDGE_CURVE ( 'NONE', #34, #21, #298, .T. ) ;
#164 = AXIS2_PLACEMENT_3D ( 'NONE', #89, #49, #81 ) ;
#165 = EDGE_CURVE ( 'NONE', #141, #34, #346, .T. ) ;
#166 = EDGE_CURVE ( 'NONE', #34, #141, #288, .T. ) ;
#167 = EDGE_CURVE ( 'NONE', #39, #24, #343, .T. ) ;
#168 = EDGE_CURVE ( 'NONE', #71, #10, #234, .T. ) ;
#169 = EDGE_CURVE ( 'NONE', #71, #43, #269, .T. ) ;
#170 = AXIS2_PLACEMENT_3D ( 'NONE', #15, #60, #134 ) ;
#171 = EDGE_CURVE ( 'NONE', #24, #10, #345, .T. ) ;
#172 = AXIS2_PLACEMENT_3D ( 'NONE', #61, #4, #3 ) ;
#173 = APPROVAL ( #29, 'UNSPECIFIED' ) ;
#174 = AXIS2_PLACEMENT_3D ( 'NONE', #66, #5, #8 ) ;
#175 = CC_DESIGN_DATE_AND_TIME_ASSIGNMENT ( #228, #36, ( #230 ) ) ;
#176 = EDGE_CURVE ( 'NONE', #31, #44, #353, .T. ) ;
#177 = EDGE_CURVE ( 'NONE', #39, #71, #274, .T. ) ;
#178 = AXIS2_PLACEMENT_3D ( 'NONE', #55, #109, #110 ) ;
#179 = AXIS2_PLACEMENT_3D ( 'NONE', #51, #46, #19 ) ;
#180 = EDGE_CURVE ( 'NONE', #21, #40, #339, .T. ) ;
#181 = EDGE_CURVE ( 'NONE', #132, #44, #237, .T. ) ;
#182 = CC_DESIGN_SECURITY_CLASSIFICATION ( #230, ( #188 ) ) ;
#183 = EDGE_CURVE ( 'NONE', #9, #37, #286, .T. ) ;
#184 = AXIS2_PLACEMENT_3D ( 'NONE', #111, #114, #115 ) ;
#185 = AXIS2_PLACEMENT_3D ( 'NONE', #129, #125, #127 ) ;
#186 = PRODUCT_DEFINITION ( 'UNKNOWN', '', #188, #372 ) ;
#187 = AXIS2_PLACEMENT_3D ( 'NONE', #93, #90, #70 ) ;
#188 = PRODUCT_DEFINITION_FORMATION_WITH_SPECIFIED_SOURCE ( 'ANY', '', #387, .NOT_KNOWN. ) ;
#189 = CC_DESIGN_APPROVAL ( #196, ( #188 ) ) ;
#190 = CC_DESIGN_PERSON_AND_ORGANIZATION_ASSIGNMENT ( #225, #83, ( #188 ) ) ;
#191 = CC_DESIGN_PERSON_AND_ORGANIZATION_ASSIGNMENT ( #227, #82, ( #188 ) ) ;
#192 = CC_DESIGN_PERSON_AND_ORGANIZATION_ASSIGNMENT ( #214, #84, ( #230 ) ) ;
#193 = EDGE_CURVE ( 'NONE', #139, #37, #313, .T. ) ;
#194 = CC_DESIGN_APPROVAL ( #173, ( #186 ) ) ;
#195 = EDGE_CURVE ( 'NONE', #43, #139, #358, .T. ) ;
#196 = APPROVAL ( #119, 'UNSPECIFIED' ) ;
#197 = CC_DESIGN_PERSON_AND_ORGANIZATION_ASSIGNMENT ( #305, #74, ( #387 ) ) ;
#198 = AXIS2_PLACEMENT_3D ( 'NONE', #144, #142, #137 ) ;
#199 = AXIS2_PLACEMENT_3D ( 'NONE', #121, #122, #80 ) ;
#200 = CC_DESIGN_APPROVAL ( #159, ( #230 ) ) ;
#201 = AXIS2_PLACEMENT_3D ( 'NONE', #99, #67, #100 ) ;
#202 = PRODUCT_RELATED_PRODUCT_CATEGORY ( 'detail', '', ( #387 ) ) ;
#203 = AXIS2_PLACEMENT_3D ( 'NONE', #14, #18, #17 ) ;
#204 = CC_DESIGN_PERSON_AND_ORGANIZATION_ASSIGNMENT ( #293, #112, ( #186 ) ) ;
#205 = CC_DESIGN_DATE_AND_TIME_ASSIGNMENT ( #211, #118, ( #186 ) ) ;
#206 = AXIS2_PLACEMENT_3D ( 'NONE', #123, #23, #78 ) ;
#207 = EDGE_CURVE ( 'NONE', #44, #31, #332, .T. ) ;
#208 = EDGE_CURVE ( 'NONE', #40, #21, #302, .T. ) ;
#209 = EDGE_CURVE ( 'NONE', #10, #9, #239, .T. ) ;
#210 = EDGE_CURVE ( 'NONE', #43, #9, #272, .T. ) ;
#211 = DATE_AND_TIME ( #290, #366 ) ;
#212 = COORDINATED_UNIVERSAL_TIME_OFFSET ( 6, 0, .BEHIND. ) ;
#213 = DATE_AND_TIME ( #223, #224 ) ;
#214 = PERSON_AND_ORGANIZATION ( #388, #357 ) ;
#215 = APPROVAL_PERSON_ORGANIZATION ( #217, #159, #26 ) ;
#216 = DATE_AND_TIME ( #231, #219 ) ;
#217 = PERSON_AND_ORGANIZATION ( #388, #357 ) ;
#218 = APPROVAL_DATE_TIME ( #216, #159 ) ;
#219 = LOCAL_TIME ( 9, 52, 10.00000000000000000, #222 ) ;
#220 = COORDINATED_UNIVERSAL_TIME_OFFSET ( 6, 0, .BEHIND. ) ;
#221 = APPROVAL_PERSON_ORGANIZATION ( #232, #196, #30 ) ;
#222 = COORDINATED_UNIVERSAL_TIME_OFFSET ( 6, 0, .BEHIND. ) ;
#223 = CALENDAR_DATE ( 2010, 24, 6 ) ;
#224 = LOCAL_TIME ( 9, 52, 10.00000000000000000, #220 ) ;
#225 = PERSON_AND_ORGANIZATION ( #388, #357 ) ;
#226 = APPROVAL_DATE_TIME ( #213, #196 ) ;
#227 = PERSON_AND_ORGANIZATION ( #388, #357 ) ;
#228 = DATE_AND_TIME ( #229, #233 ) ;
#229 = CALENDAR_DATE ( 2010, 24, 6 ) ;
#230 = SECURITY_CLASSIFICATION ( '', '', #13 ) ;
#231 = CALENDAR_DATE ( 2010, 24, 6 ) ;
#232 = PERSON_AND_ORGANIZATION ( #388, #357 ) ;
#233 = LOCAL_TIME ( 9, 52, 10.00000000000000000, #212 ) ;
#234 = LINE ( 'NONE', #75, #240 ) ;
#235 = ORIENTED_EDGE ( 'NONE', *, *, #207, .F. ) ;
#236 = ORIENTED_EDGE ( 'NONE', *, *, #180, .T. ) ;
#237 = LINE ( 'NONE', #150, #251 ) ;
#238 = LINE ( 'NONE', #124, #329 ) ;
#239 = LINE ( 'NONE', #138, #348 ) ;
#240 = VECTOR ( 'NONE', #79, 39.37007874015748100 ) ;
#241 = ORIENTED_EDGE ( 'NONE', *, *, #160, .F. ) ;
#242 = ORIENTED_EDGE ( 'NONE', *, *, #169, .T. ) ;
#243 = ORIENTED_EDGE ( 'NONE', *, *, #166, .F. ) ;
#244 = ORIENTED_EDGE ( 'NONE', *, *, #165, .T. ) ;
#245 = ORIENTED_EDGE ( 'NONE', *, *, #165, .F. ) ;
#246 = CYLINDRICAL_SURFACE ( 'NONE', #185, 0.08474999999999997800 ) ;
#247 = COORDINATED_UNIVERSAL_TIME_OFFSET ( 6, 0, .BEHIND. ) ;
#248 = ORIENTED_EDGE ( 'NONE', *, *, #177, .F. ) ;
#249 = ORIENTED_EDGE ( 'NONE', *, *, #158, .T. ) ;
#250 = EDGE_LOOP ( 'NONE', ( #265, #266, #338, #252 ) ) ;
#251 = VECTOR ( 'NONE', #148, 39.37007874015748100 ) ;
#252 = ORIENTED_EDGE ( 'NONE', *, *, #168, .T. ) ;
#253 = EDGE_LOOP ( 'NONE', ( #354, #331, #264, #248 ) ) ;
#254 = DATE_AND_TIME ( #257, #281 ) ;
#255 = ORIENTED_EDGE ( 'NONE', *, *, #210, .F. ) ;
#256 = ORIENTED_EDGE ( 'NONE', *, *, #195, .T. ) ;
#257 = CALENDAR_DATE ( 2010, 24, 6 ) ;
#258 = CLOSED_SHELL ( 'NONE', ( #384, #385, #382, #378, #381, #380, #379, #386, #376, #377 ) ) ;
#259 = EDGE_LOOP ( 'NONE', ( #337, #323, #301, #311 ) ) ;
#260 = ORIENTED_EDGE ( 'NONE', *, *, #210, .T. ) ;
#261 = EDGE_LOOP ( 'NONE', ( #370, #245, #359, #324 ) ) ;
#262 = ORIENTED_EDGE ( 'NONE', *, *, #151, .F. ) ;
#263 = FACE_OUTER_BOUND ( 'NONE', #355, .T. ) ;
#264 = ORIENTED_EDGE ( 'NONE', *, *, #169, .F. ) ;
#265 = ORIENTED_EDGE ( 'NONE', *, *, #171, .F. ) ;
#266 = ORIENTED_EDGE ( 'NONE', *, *, #167, .F. ) ;
#267 = APPROVAL_PERSON_ORGANIZATION ( #314, #173, #25 ) ;
#268 = VECTOR ( 'NONE', #20, 39.37007874015748100 ) ;
#269 = LINE ( 'NONE', #47, #349 ) ;
#270 = ORIENTED_EDGE ( 'NONE', *, *, #176, .T. ) ;
#271 = VECTOR ( 'NONE', #136, 39.37007874015748100 ) ;
#272 = LINE ( 'NONE', #59, #309 ) ;
#273 = ORIENTED_EDGE ( 'NONE', *, *, #161, .T. ) ;
#274 = LINE ( 'NONE', #22, #268 ) ;
#275 = ORIENTED_EDGE ( 'NONE', *, *, #155, .T. ) ;
#276 = VECTOR ( 'NONE', #58, 39.37007874015748100 ) ;
#277 = EDGE_LOOP ( 'NONE', ( #344, #235 ) ) ;
#278 = FACE_BOUND ( 'NONE', #328, .T. ) ;
#279 = EDGE_LOOP ( 'NONE', ( #299, #241, #275, #270 ) ) ;
#280 = FACE_OUTER_BOUND ( 'NONE', #253, .T. ) ;
#281 = LOCAL_TIME ( 9, 52, 10.00000000000000000, #315 ) ;
#282 = EDGE_LOOP ( 'NONE', ( #340, #273 ) ) ;
#283 = ORIENTED_EDGE ( 'NONE', *, *, #207, .T. ) ;
#284 = FACE_OUTER_BOUND ( 'NONE', #261, .T. ) ;
#285 = ORIENTED_EDGE ( 'NONE', *, *, #161, .F. ) ;
#286 = LINE ( 'NONE', #143, #325 ) ;
#287 = LINE ( 'NONE', #91, #312 ) ;
#288 = CIRCLE ( 'NONE', #203, 0.08474999999999996400 ) ;
#289 =( GEOMETRIC_REPRESENTATION_CONTEXT ( 3 ) GLOBAL_UNCERTAINTY_ASSIGNED_CONTEXT ( ( #375 ) ) GLOBAL_UNIT_ASSIGNED_CONTEXT ( ( #149, #133, #131 ) ) REPRESENTATION_CONTEXT ( 'NONE', 'WORKASPACE' ) );
#290 = CALENDAR_DATE ( 2010, 24, 6 ) ;
#291 = FACE_BOUND ( 'NONE', #304, .T. ) ;
#292 = ORIENTED_EDGE ( 'NONE', *, *, #166, .T. ) ;
#293 = PERSON_AND_ORGANIZATION ( #388, #357 ) ;
#294 = ORIENTED_EDGE ( 'NONE', *, *, #181, .T. ) ;
#295 = LENGTH_MEASURE_WITH_UNIT ( LENGTH_MEASURE( 0.02539999999999999900 ), #86 );
#296 = FACE_OUTER_BOUND ( 'NONE', #307, .T. ) ;
#297 = ORIENTED_EDGE ( 'NONE', *, *, #163, .T. ) ;
#298 = LINE ( 'NONE', #64, #347 ) ;
#299 = ORIENTED_EDGE ( 'NONE', *, *, #181, .F. ) ;
#300 = CYLINDRICAL_SURFACE ( 'NONE', #157, 0.08474999999999997800 ) ;
#301 = ORIENTED_EDGE ( 'NONE', *, *, #209, .T. ) ;
#302 = CIRCLE ( 'NONE', #164, 0.08474999999999997800 ) ;
#303 = CYLINDRICAL_SURFACE ( 'NONE', #154, 0.08474999999999996400 ) ;
#304 = EDGE_LOOP ( 'NONE', ( #244, #292 ) ) ;
#305 = PERSON_AND_ORGANIZATION ( #388, #357 ) ;
#306 = ORIENTED_EDGE ( 'NONE', *, *, #156, .F. ) ;
#307 = EDGE_LOOP ( 'NONE', ( #308, #318, #242, #260 ) ) ;
#308 = ORIENTED_EDGE ( 'NONE', *, *, #209, .F. ) ;
#309 = VECTOR ( 'NONE', #52, 39.37007874015748100 ) ;
#310 = FACE_OUTER_BOUND ( 'NONE', #279, .T. ) ;
#311 = ORIENTED_EDGE ( 'NONE', *, *, #183, .T. ) ;
#312 = VECTOR ( 'NONE', #35, 39.37007874015748100 ) ;
#313 = LINE ( 'NONE', #147, #336 ) ;
#314 = PERSON_AND_ORGANIZATION ( #388, #357 ) ;
#315 = COORDINATED_UNIVERSAL_TIME_OFFSET ( 6, 0, .BEHIND. ) ;
#316 = ORIENTED_EDGE ( 'NONE', *, *, #155, .F. ) ;
#317 = CYLINDRICAL_SURFACE ( 'NONE', #187, 0.08474999999999996400 ) ;
#318 = ORIENTED_EDGE ( 'NONE', *, *, #168, .F. ) ;
#319 = FACE_BOUND ( 'NONE', #277, .T. ) ;
#320 = VECTOR ( 'NONE', #77, 39.37007874015748100 ) ;
#321 = EDGE_LOOP ( 'NONE', ( #306, #365, #249, #335 ) ) ;
#322 = APPROVAL_DATE_TIME ( #254, #173 ) ;
#323 = ORIENTED_EDGE ( 'NONE', *, *, #171, .T. ) ;
#324 = ORIENTED_EDGE ( 'NONE', *, *, #208, .T. ) ;
#325 = VECTOR ( 'NONE', #54, 39.37007874015748100 ) ;
#326 = FACE_OUTER_BOUND ( 'NONE', #259, .T. ) ;
#327 = FACE_OUTER_BOUND ( 'NONE', #333, .T. ) ;
#328 = EDGE_LOOP ( 'NONE', ( #334, #364 ) ) ;
#329 = VECTOR ( 'NONE', #63, 39.37007874015748100 ) ;
#330 = VECTOR ( 'NONE', #120, 39.37007874015748100 ) ;
#331 = ORIENTED_EDGE ( 'NONE', *, *, #195, .F. ) ;
#332 = CIRCLE ( 'NONE', #152, 0.08474999999999999200 ) ;
#333 = EDGE_LOOP ( 'NONE', ( #243, #297, #236, #262 ) ) ;
#334 = ORIENTED_EDGE ( 'NONE', *, *, #208, .F. ) ;
#335 = ORIENTED_EDGE ( 'NONE', *, *, #167, .T. ) ;
#336 = VECTOR ( 'NONE', #6, 39.37007874015748100 ) ;
#337 = ORIENTED_EDGE ( 'NONE', *, *, #156, .T. ) ;
#338 = ORIENTED_EDGE ( 'NONE', *, *, #177, .T. ) ;
#339 = CIRCLE ( 'NONE', #170, 0.08474999999999997800 ) ;
#340 = ORIENTED_EDGE ( 'NONE', *, *, #160, .T. ) ;
#341 = FACE_OUTER_BOUND ( 'NONE', #250, .T. ) ;
#342 = LINE ( 'NONE', #104, #350 ) ;
#343 = LINE ( 'NONE', #16, #320 ) ;
#344 = ORIENTED_EDGE ( 'NONE', *, *, #176, .F. ) ;
#345 = LINE ( 'NONE', #117, #330 ) ;
#346 = CIRCLE ( 'NONE', #179, 0.08474999999999996400 ) ;
#347 = VECTOR ( 'NONE', #65, 39.37007874015748100 ) ;
#348 = VECTOR ( 'NONE', #130, 39.37007874015748100 ) ;
#349 = VECTOR ( 'NONE', #92, 39.37007874015748100 ) ;
#350 = VECTOR ( 'NONE', #105, 39.37007874015748100 ) ;
#351 = CIRCLE ( 'NONE', #153, 0.08474999999999996400 ) ;
#352 = ORIENTED_EDGE ( 'NONE', *, *, #193, .T. ) ;
#353 = CIRCLE ( 'NONE', #199, 0.08474999999999999200 ) ;
#354 = ORIENTED_EDGE ( 'NONE', *, *, #158, .F. ) ;
#355 = EDGE_LOOP ( 'NONE', ( #285, #294, #283, #316 ) ) ;
#356 = SHAPE_DEFINITION_REPRESENTATION ( #371, #374 ) ;
#357 = ORGANIZATION ( 'UNSPECIFIED', 'UNSPECIFIED', '' ) ;
#358 = LINE ( 'NONE', #140, #271 ) ;
#359 = ORIENTED_EDGE ( 'NONE', *, *, #151, .T. ) ;
#360 = ORIENTED_EDGE ( 'NONE', *, *, #183, .F. ) ;
#361 = FACE_OUTER_BOUND ( 'NONE', #321, .T. ) ;
#362 = EDGE_LOOP ( 'NONE', ( #360, #255, #256, #352 ) ) ;
#363 = LINE ( 'NONE', #56, #276 ) ;
#364 = ORIENTED_EDGE ( 'NONE', *, *, #180, .F. ) ;
#365 = ORIENTED_EDGE ( 'NONE', *, *, #193, .F. ) ;
#366 = LOCAL_TIME ( 9, 52, 10.00000000000000000, #247 ) ;
#367 = CIRCLE ( 'NONE', #206, 0.08474999999999996400 ) ;
#368 = FACE_OUTER_BOUND ( 'NONE', #362, .T. ) ;
#369 = FACE_BOUND ( 'NONE', #282, .T. ) ;
#370 = ORIENTED_EDGE ( 'NONE', *, *, #163, .F. ) ;
#371 = PRODUCT_DEFINITION_SHAPE ( 'NONE', 'NONE',  #186 ) ;
#372 = DESIGN_CONTEXT ( 'detailed design', #41, 'design' ) ;
#373 = MANIFOLD_SOLID_BREP ( 'NONE', #258 ) ;
#374 = ADVANCED_BREP_SHAPE_REPRESENTATION ( 'D020308-v2_aLIGO_SUS_HSTS_Lower Blade Clamp, Lower Side', ( #373, #184 ), #289 ) ;
#375 = UNCERTAINTY_MEASURE_WITH_UNIT (LENGTH_MEASURE( 1.000000000000000100E-005 ), #149, 'distance_accuracy_value', 'NONE');
#376 = ADVANCED_FACE ( 'NONE', ( #310 ), #300, .F. ) ;
#377 = ADVANCED_FACE ( 'NONE', ( #284 ), #303, .F. ) ;
#378 = ADVANCED_FACE ( 'NONE', ( #368 ), #103, .T. ) ;
#379 = ADVANCED_FACE ( 'NONE', ( #280 ), #102, .T. ) ;
#380 = ADVANCED_FACE ( 'NONE', ( #341 ), #57, .T. ) ;
#381 = ADVANCED_FACE ( 'NONE', ( #278, #319, #296 ), #62, .T. ) ;
#382 = ADVANCED_FACE ( 'NONE', ( #291, #369, #361 ), #94, .T. ) ;
#383 = DIMENSIONAL_EXPONENTS ( 1.000000000000000000, 0.0000000000000000000, 0.0000000000000000000, 0.0000000000000000000, 0.0000000000000000000, 0.0000000000000000000, 0.0000000000000000000 ) ;
#384 = ADVANCED_FACE ( 'NONE', ( #327 ), #317, .F. ) ;
#385 = ADVANCED_FACE ( 'NONE', ( #263 ), #246, .F. ) ;
#386 = ADVANCED_FACE ( 'NONE', ( #326 ), #1, .F. ) ;
#387 = PRODUCT ( 'D020308-v2_aLIGO_SUS_HSTS_Lower Blade Clamp, Lower Side', 'D020308-v2_aLIGO_SUS_HSTS_Lower Blade Clamp, Lower Side', '', ( #48 ) ) ;
#388 = PERSON ( 'UNSPECIFIED', 'UNSPECIFIED', 'UNSPECIFIED', ('UNSPECIFIED'), ('UNSPECIFIED'), ('UNSPECIFIED') ) ;
ENDSEC;
END-ISO-10303-21;
