ISO-10303-21;
HEADER;
FILE_DESCRIPTION (( 'STEP AP203' ),
    '1' );
FILE_NAME ('D020350-v3_aLIGO_SUS_HSTS_100g Addon Mass.STEP',
    '2010-06-17T18:58:10',
    ( ' ' ),
    ( ' ' ),
    'SwSTEP 2.0',
    'SolidWorks 2009',
    '' );
FILE_SCHEMA (( 'CONFIG_CONTROL_DESIGN' ));
ENDSEC;

DATA;
#1 = PLANE ( 'NONE',  #3 ) ;
#2 = CARTESIAN_POINT ( 'NONE',  ( 0.1329999999999999800, -2.770928881352589100E-019, -0.2699999999999994600 ) ) ;
#3 = AXIS2_PLACEMENT_3D ( 'NONE', #2, #42, #41 ) ;
#4 = FACE_OUTER_BOUND ( 'NONE', #306, .T. ) ;
#5 = FACE_BOUND ( 'NONE', #237, .T. ) ;
#6 = DIRECTION ( 'NONE',  ( 1.000000000000000000, 0.0000000000000000000, 0.0000000000000000000 ) ) ;
#7 = DIRECTION ( 'NONE',  ( 1.054446644552012600E-032, -1.294224922628223600E-031, 1.000000000000000000 ) ) ;
#8 = CARTESIAN_POINT ( 'NONE',  ( -3.649030652505343700E-032, 4.170320745720392400E-032, -0.2699999999999994600 ) ) ;
#9 = AXIS2_PLACEMENT_3D ( 'NONE', #8, #7, #6 ) ;
#10 = CIRCLE ( 'NONE', #9, 0.2187499999999998100 ) ;
#11 = DIRECTION ( 'NONE',  ( 1.000000000000000000, 0.0000000000000000000, 2.460375503954694600E-032 ) ) ;
#12 = DIRECTION ( 'NONE',  ( -2.460375503954694600E-032, -1.294224922628223400E-031, 1.000000000000000000 ) ) ;
#13 = CARTESIAN_POINT ( 'NONE',  ( -4.739000847409537200E-033, 0.0000000000000000000, 0.0000000000000000000 ) ) ;
#14 = AXIS2_PLACEMENT_3D ( 'NONE', #13, #12, #11 ) ;
#15 = PLANE ( 'NONE',  #14 ) ;
#16 = FACE_OUTER_BOUND ( 'NONE', #185, .T. ) ;
#17 = FACE_BOUND ( 'NONE', #184, .T. ) ;
#18 = CARTESIAN_POINT ( 'NONE',  ( -0.2187499999999997800, 2.678826398986447500E-017, 2.306602034957531300E-033 ) ) ;
#19 = CARTESIAN_POINT ( 'NONE',  ( 0.2187499999999998100, 4.170320745720392400E-032, -0.2699999999999994600 ) ) ;
#20 = CARTESIAN_POINT ( 'NONE',  ( -0.2187499999999999200, 2.678826398986448700E-017, -0.2699999999999994600 ) ) ;
#21 = DIRECTION ( 'NONE',  ( 1.000000000000000000, 0.0000000000000000000, 0.0000000000000000000 ) ) ;
#22 = DIRECTION ( 'NONE',  ( 1.054446644552012600E-032, -1.294224922628223600E-031, 1.000000000000000000 ) ) ;
#23 = CARTESIAN_POINT ( 'NONE',  ( -3.649030652505343700E-032, 4.170320745720392400E-032, -0.2699999999999994600 ) ) ;
#24 = AXIS2_PLACEMENT_3D ( 'NONE', #23, #22, #21 ) ;
#25 = DIRECTION ( 'NONE',  ( 1.000000000000000000, 0.0000000000000000000, 2.460375503954694600E-032 ) ) ;
#26 = DIRECTION ( 'NONE',  ( 1.054446644552012600E-032, -1.294224922628223600E-031, 1.000000000000000000 ) ) ;
#27 = AXIS2_PLACEMENT_3D ( 'NONE', #29, #26, #25 ) ;
#28 = CIRCLE ( 'NONE', #24, 0.2187499999999998100 ) ;
#29 = CARTESIAN_POINT ( 'NONE',  ( -4.739000847409537200E-033, 0.0000000000000000000, 0.0000000000000000000 ) ) ;
#30 = CYLINDRICAL_SURFACE ( 'NONE', #27, 0.2187499999999997800 ) ;
#31 = CARTESIAN_POINT ( 'NONE',  ( -4.561288315631679600E-032, 9.098881627026311400E-032, -0.6729999999999989300 ) ) ;
#32 = CYLINDRICAL_SURFACE ( 'NONE', #66, 0.6249999999999997800 ) ;
#33 = AXIS2_PLACEMENT_3D ( 'NONE', #83, #82, #81 ) ;
#34 = CIRCLE ( 'NONE', #33, 0.6249999999999997800 ) ;
#35 = DIRECTION ( 'NONE',  ( 1.000000000000000000, 0.0000000000000000000, 0.0000000000000000000 ) ) ;
#36 = CIRCLE ( 'NONE', #64, 0.2187499999999997200 ) ;
#37 = DIRECTION ( 'NONE',  ( 1.000000000000000000, 0.0000000000000000000, 0.0000000000000000000 ) ) ;
#38 = DIRECTION ( 'NONE',  ( 1.054446644552012600E-032, -1.294224922628223600E-031, 1.000000000000000000 ) ) ;
#39 = CARTESIAN_POINT ( 'NONE',  ( -3.649030652505343700E-032, 4.170320745720392400E-032, -0.2699999999999994600 ) ) ;
#40 = AXIS2_PLACEMENT_3D ( 'NONE', #39, #38, #37 ) ;
#41 = DIRECTION ( 'NONE',  ( -1.000000000000000000, 0.0000000000000000000, -2.460375503954694600E-032 ) ) ;
#42 = DIRECTION ( 'NONE',  ( 2.460375503954694600E-032, 1.294224922628223400E-031, -1.000000000000000000 ) ) ;
#43 = CIRCLE ( 'NONE', #40, 0.1329999999999999500 ) ;
#44 = APPLICATION_PROTOCOL_DEFINITION ( 'international standard', 'config_control_design', 1994, #87 ) ;
#45 = ADVANCED_BREP_SHAPE_REPRESENTATION ( 'D020350-v3_aLIGO_SUS_HSTS_100g Addon Mass', ( #190, #88 ), #46 ) ;
#46 =( GEOMETRIC_REPRESENTATION_CONTEXT ( 3 ) GLOBAL_UNCERTAINTY_ASSIGNED_CONTEXT ( ( #47 ) ) GLOBAL_UNIT_ASSIGNED_CONTEXT ( ( #50, #49, #48 ) ) REPRESENTATION_CONTEXT ( 'NONE', 'WORKASPACE' ) );
#47 = UNCERTAINTY_MEASURE_WITH_UNIT (LENGTH_MEASURE( 1.000000000000000100E-005 ), #50, 'distance_accuracy_value', 'NONE');
#48 =( NAMED_UNIT ( * ) SI_UNIT ( $, .STERADIAN. ) SOLID_ANGLE_UNIT ( ) );
#49 =( NAMED_UNIT ( * ) PLANE_ANGLE_UNIT ( ) SI_UNIT ( $, .RADIAN. ) );
#50 =( CONVERSION_BASED_UNIT ( 'INCH', #51 ) LENGTH_UNIT ( ) NAMED_UNIT ( #52 ) );
#51 = LENGTH_MEASURE_WITH_UNIT ( LENGTH_MEASURE( 0.02539999999999999900 ), #53 );
#52 = DIMENSIONAL_EXPONENTS ( 1.000000000000000000, 0.0000000000000000000, 0.0000000000000000000, 0.0000000000000000000, 0.0000000000000000000, 0.0000000000000000000, 0.0000000000000000000 ) ;
#53 =( LENGTH_UNIT ( ) NAMED_UNIT ( * ) SI_UNIT ( $, .METRE. ) );
#54 = DIRECTION ( 'NONE',  ( 1.000000000000000000, 0.0000000000000000000, 2.460375503954694900E-032 ) ) ;
#55 = DIRECTION ( 'NONE',  ( 1.054446644552012600E-032, -1.294224922628223600E-031, 1.000000000000000000 ) ) ;
#56 = AXIS2_PLACEMENT_3D ( 'NONE', #58, #55, #54 ) ;
#57 = MECHANICAL_CONTEXT ( 'NONE', #87, 'mechanical' ) ;
#58 = CARTESIAN_POINT ( 'NONE',  ( -4.739000847409537200E-033, 0.0000000000000000000, 0.0000000000000000000 ) ) ;
#59 = CYLINDRICAL_SURFACE ( 'NONE', #56, 0.1329999999999998700 ) ;
#60 = FACE_OUTER_BOUND ( 'NONE', #310, .T. ) ;
#61 = DIRECTION ( 'NONE',  ( 1.000000000000000000, 0.0000000000000000000, 2.460375503954694600E-032 ) ) ;
#62 = DIRECTION ( 'NONE',  ( 1.054446644552012600E-032, -1.294224922628223600E-031, 1.000000000000000000 ) ) ;
#63 = CARTESIAN_POINT ( 'NONE',  ( -4.739000847409537200E-033, 0.0000000000000000000, 0.0000000000000000000 ) ) ;
#64 = AXIS2_PLACEMENT_3D ( 'NONE', #63, #62, #61 ) ;
#65 = DIRECTION ( 'NONE',  ( 1.054446644552012600E-032, -1.294224922628223600E-031, 1.000000000000000000 ) ) ;
#66 = AXIS2_PLACEMENT_3D ( 'NONE', #31, #65, #35 ) ;
#67 = FACE_OUTER_BOUND ( 'NONE', #216, .T. ) ;
#68 = VECTOR ( 'NONE', #70, 39.37007874015748100 ) ;
#69 = CARTESIAN_POINT ( 'NONE',  ( -0.6250000000000000000, 7.653789711389854200E-017, 6.590291528450104200E-033 ) ) ;
#70 = DIRECTION ( 'NONE',  ( 1.054446644552012600E-032, -1.294224922628223600E-031, 1.000000000000000000 ) ) ;
#71 = CARTESIAN_POINT ( 'NONE',  ( 0.6249999999999997800, 9.098881627026311400E-032, -0.6729999999999989300 ) ) ;
#72 = LINE ( 'NONE', #71, #68 ) ;
#73 = DIRECTION ( 'NONE',  ( 1.000000000000000000, 0.0000000000000000000, 2.460375503954695200E-032 ) ) ;
#74 = DIRECTION ( 'NONE',  ( 1.054446644552012600E-032, -1.294224922628223600E-031, 1.000000000000000000 ) ) ;
#75 = AXIS2_PLACEMENT_3D ( 'NONE', #86, #74, #73 ) ;
#76 = FACE_OUTER_BOUND ( 'NONE', #224, .T. ) ;
#77 = DIRECTION ( 'NONE',  ( 1.054446644552012600E-032, -1.294224922628223600E-031, 1.000000000000000000 ) ) ;
#78 = VECTOR ( 'NONE', #77, 39.37007874015748100 ) ;
#79 = CARTESIAN_POINT ( 'NONE',  ( 0.1329999999999998700, 0.0000000000000000000, 3.272299420259741100E-033 ) ) ;
#80 = LINE ( 'NONE', #79, #78 ) ;
#81 = DIRECTION ( 'NONE',  ( 1.000000000000000000, 0.0000000000000000000, 0.0000000000000000000 ) ) ;
#82 = DIRECTION ( 'NONE',  ( 1.054446644552012600E-032, -1.294224922628223600E-031, 1.000000000000000000 ) ) ;
#83 = CARTESIAN_POINT ( 'NONE',  ( -4.561288315631679600E-032, 9.098881627026311400E-032, -0.6729999999999989300 ) ) ;
#84 = CARTESIAN_POINT ( 'NONE',  ( 0.6249999999999997800, 0.0000000000000000000, 1.537734689971683900E-032 ) ) ;
#85 = CIRCLE ( 'NONE', #75, 0.6249999999999997800 ) ;
#86 = CARTESIAN_POINT ( 'NONE',  ( -4.739000847409537200E-033, 0.0000000000000000000, 0.0000000000000000000 ) ) ;
#87 = APPLICATION_CONTEXT ( 'configuration controlled 3d designs of mechanical parts and assemblies' ) ;
#88 = AXIS2_PLACEMENT_3D ( 'NONE', #89, #90, #91 ) ;
#89 = CARTESIAN_POINT ( 'NONE',  ( 0.0000000000000000000, 0.0000000000000000000, 0.0000000000000000000 ) ) ;
#90 = DIRECTION ( 'NONE',  ( 0.0000000000000000000, 0.0000000000000000000, 1.000000000000000000 ) ) ;
#91 = DIRECTION ( 'NONE',  ( 1.000000000000000000, 0.0000000000000000000, 0.0000000000000000000 ) ) ;
#92 = CC_DESIGN_SECURITY_CLASSIFICATION ( #113, ( #152 ) ) ;
#93 = CC_DESIGN_APPROVAL ( #101, ( #113 ) ) ;
#94 = APPROVAL_DATE_TIME ( #95, #101 ) ;
#95 = DATE_AND_TIME ( #96, #97 ) ;
#96 = CALENDAR_DATE ( 2010, 17, 6 ) ;
#97 = LOCAL_TIME ( 13, 58, 10.00000000000000000, #98 ) ;
#98 = COORDINATED_UNIVERSAL_TIME_OFFSET ( 6, 0, .BEHIND. ) ;
#99 = APPROVAL_PERSON_ORGANIZATION ( #103, #101, #100 ) ;
#100 = APPROVAL_ROLE ( '' ) ;
#101 = APPROVAL ( #102, 'UNSPECIFIED' ) ;
#102 = APPROVAL_STATUS ( 'not_yet_approved' ) ;
#103 = PERSON_AND_ORGANIZATION ( #155, #153 ) ;
#104 = CC_DESIGN_DATE_AND_TIME_ASSIGNMENT ( #106, #105, ( #113 ) ) ;
#105 = DATE_TIME_ROLE ( 'classification_date' ) ;
#106 = DATE_AND_TIME ( #107, #108 ) ;
#107 = CALENDAR_DATE ( 2010, 17, 6 ) ;
#108 = LOCAL_TIME ( 13, 58, 10.00000000000000000, #109 ) ;
#109 = COORDINATED_UNIVERSAL_TIME_OFFSET ( 6, 0, .BEHIND. ) ;
#110 = CC_DESIGN_PERSON_AND_ORGANIZATION_ASSIGNMENT ( #112, #111, ( #113 ) ) ;
#111 = PERSON_AND_ORGANIZATION_ROLE ( 'classification_officer' ) ;
#112 = PERSON_AND_ORGANIZATION ( #155, #153 ) ;
#113 = SECURITY_CLASSIFICATION ( '', '', #114 ) ;
#114 = SECURITY_CLASSIFICATION_LEVEL ( 'unclassified' ) ;
#115 = CC_DESIGN_PERSON_AND_ORGANIZATION_ASSIGNMENT ( #117, #116, ( #152 ) ) ;
#116 = PERSON_AND_ORGANIZATION_ROLE ( 'design_supplier' ) ;
#117 = PERSON_AND_ORGANIZATION ( #155, #153 ) ;
#118 = SHAPE_DEFINITION_REPRESENTATION ( #119, #45 ) ;
#119 = PRODUCT_DEFINITION_SHAPE ( 'NONE', 'NONE',  #160 ) ;
#120 = PRODUCT_RELATED_PRODUCT_CATEGORY ( 'detail', '', ( #165 ) ) ;
#121 = CC_DESIGN_DATE_AND_TIME_ASSIGNMENT ( #123, #122, ( #160 ) ) ;
#122 = DATE_TIME_ROLE ( 'creation_date' ) ;
#123 = DATE_AND_TIME ( #124, #125 ) ;
#124 = CALENDAR_DATE ( 2010, 17, 6 ) ;
#125 = LOCAL_TIME ( 13, 58, 10.00000000000000000, #126 ) ;
#126 = COORDINATED_UNIVERSAL_TIME_OFFSET ( 6, 0, .BEHIND. ) ;
#127 = CC_DESIGN_PERSON_AND_ORGANIZATION_ASSIGNMENT ( #129, #128, ( #160 ) ) ;
#128 = PERSON_AND_ORGANIZATION_ROLE ( 'creator' ) ;
#129 = PERSON_AND_ORGANIZATION ( #155, #153 ) ;
#130 = CC_DESIGN_APPROVAL ( #137, ( #160 ) ) ;
#131 = APPROVAL_DATE_TIME ( #132, #137 ) ;
#132 = DATE_AND_TIME ( #133, #134 ) ;
#133 = CALENDAR_DATE ( 2010, 17, 6 ) ;
#134 = LOCAL_TIME ( 13, 58, 10.00000000000000000, #135 ) ;
#135 = COORDINATED_UNIVERSAL_TIME_OFFSET ( 6, 0, .BEHIND. ) ;
#136 = APPROVAL_PERSON_ORGANIZATION ( #159, #137, #157 ) ;
#137 = APPROVAL ( #158, 'UNSPECIFIED' ) ;
#138 = CC_DESIGN_PERSON_AND_ORGANIZATION_ASSIGNMENT ( #140, #139, ( #152 ) ) ;
#139 = PERSON_AND_ORGANIZATION_ROLE ( 'creator' ) ;
#140 = PERSON_AND_ORGANIZATION ( #155, #153 ) ;
#141 = CC_DESIGN_APPROVAL ( #149, ( #152 ) ) ;
#142 = APPROVAL_DATE_TIME ( #143, #149 ) ;
#143 = DATE_AND_TIME ( #144, #145 ) ;
#144 = CALENDAR_DATE ( 2010, 17, 6 ) ;
#145 = LOCAL_TIME ( 13, 58, 10.00000000000000000, #146 ) ;
#146 = COORDINATED_UNIVERSAL_TIME_OFFSET ( 6, 0, .BEHIND. ) ;
#147 = APPROVAL_PERSON_ORGANIZATION ( #151, #149, #148 ) ;
#148 = APPROVAL_ROLE ( '' ) ;
#149 = APPROVAL ( #150, 'UNSPECIFIED' ) ;
#150 = APPROVAL_STATUS ( 'not_yet_approved' ) ;
#151 = PERSON_AND_ORGANIZATION ( #155, #153 ) ;
#152 = PRODUCT_DEFINITION_FORMATION_WITH_SPECIFIED_SOURCE ( 'ANY', '', #165, .NOT_KNOWN. ) ;
#153 = ORGANIZATION ( 'UNSPECIFIED', 'UNSPECIFIED', '' ) ;
#154 = CC_DESIGN_PERSON_AND_ORGANIZATION_ASSIGNMENT ( #164, #156, ( #165 ) ) ;
#155 = PERSON ( 'UNSPECIFIED', 'UNSPECIFIED', 'UNSPECIFIED', ('UNSPECIFIED'), ('UNSPECIFIED'), ('UNSPECIFIED') ) ;
#156 = PERSON_AND_ORGANIZATION_ROLE ( 'design_owner' ) ;
#157 = APPROVAL_ROLE ( '' ) ;
#158 = APPROVAL_STATUS ( 'not_yet_approved' ) ;
#159 = PERSON_AND_ORGANIZATION ( #155, #153 ) ;
#160 = PRODUCT_DEFINITION ( 'UNKNOWN', '', #152, #161 ) ;
#161 = DESIGN_CONTEXT ( 'detailed design', #163, 'design' ) ;
#162 = APPLICATION_PROTOCOL_DEFINITION ( 'international standard', 'config_control_design', 1994, #163 ) ;
#163 = APPLICATION_CONTEXT ( 'configuration controlled 3d designs of mechanical parts and assemblies' ) ;
#164 = PERSON_AND_ORGANIZATION ( #155, #153 ) ;
#165 = PRODUCT ( 'D020350-v3_aLIGO_SUS_HSTS_100g Addon Mass', 'D020350-v3_aLIGO_SUS_HSTS_100g Addon Mass', '', ( #57 ) ) ;
#166 = ADVANCED_FACE ( 'NONE', ( #268, #267 ), #266, .F. ) ;
#167 = EDGE_LOOP ( 'NONE', ( #168, #200 ) ) ;
#168 = ORIENTED_EDGE ( 'NONE', *, *, #169, .T. ) ;
#169 = EDGE_CURVE ( 'NONE', #201, #195, #260, .T. ) ;
#170 = ORIENTED_EDGE ( 'NONE', *, *, #171, .T. ) ;
#171 = EDGE_CURVE ( 'NONE', #227, #229, #261, .T. ) ;
#172 = ORIENTED_EDGE ( 'NONE', *, *, #173, .T. ) ;
#173 = EDGE_CURVE ( 'NONE', #229, #174, #252, .T. ) ;
#174 = VERTEX_POINT ( 'NONE', #247 ) ;
#175 = ORIENTED_EDGE ( 'NONE', *, *, #176, .F. ) ;
#176 = EDGE_CURVE ( 'NONE', #228, #174, #246, .T. ) ;
#177 = ADVANCED_FACE ( 'NONE', ( #242 ), #331, .T. ) ;
#178 = EDGE_LOOP ( 'NONE', ( #179, #183, #210, #213 ) ) ;
#179 = ORIENTED_EDGE ( 'NONE', *, *, #180, .T. ) ;
#180 = EDGE_CURVE ( 'NONE', #181, #182, #332, .T. ) ;
#181 = VERTEX_POINT ( 'NONE', #322 ) ;
#182 = VERTEX_POINT ( 'NONE', #321 ) ;
#183 = ORIENTED_EDGE ( 'NONE', *, *, #208, .T. ) ;
#184 = EDGE_LOOP ( 'NONE', ( #241, #304 ) ) ;
#185 = EDGE_LOOP ( 'NONE', ( #305, #301 ) ) ;
#186 = ORIENTED_EDGE ( 'NONE', *, *, #239, .T. ) ;
#187 = CLOSED_SHELL ( 'NONE', ( #191, #223, #177, #215, #166, #230, #198, #236, #309 ) ) ;
#188 = ORIENTED_EDGE ( 'NONE', *, *, #222, .T. ) ;
#189 = ORIENTED_EDGE ( 'NONE', *, *, #169, .F. ) ;
#190 = MANIFOLD_SOLID_BREP ( 'NONE', #187 ) ;
#191 = ADVANCED_FACE ( 'NONE', ( #320 ), #319, .F. ) ;
#192 = EDGE_LOOP ( 'NONE', ( #193, #202, #205, #221 ) ) ;
#193 = ORIENTED_EDGE ( 'NONE', *, *, #194, .F. ) ;
#194 = EDGE_CURVE ( 'NONE', #195, #201, #314, .T. ) ;
#195 = VERTEX_POINT ( 'NONE', #296 ) ;
#196 = ORIENTED_EDGE ( 'NONE', *, *, #197, .F. ) ;
#197 = EDGE_CURVE ( 'NONE', #209, #212, #294, .T. ) ;
#198 = ADVANCED_FACE ( 'NONE', ( #295 ), #289, .F. ) ;
#199 = EDGE_LOOP ( 'NONE', ( #231, #232, #234, #235 ) ) ;
#200 = ORIENTED_EDGE ( 'NONE', *, *, #194, .T. ) ;
#201 = VERTEX_POINT ( 'NONE', #288 ) ;
#202 = ORIENTED_EDGE ( 'NONE', *, *, #203, .T. ) ;
#203 = EDGE_CURVE ( 'NONE', #195, #204, #283, .T. ) ;
#204 = VERTEX_POINT ( 'NONE', #279 ) ;
#205 = ORIENTED_EDGE ( 'NONE', *, *, #206, .T. ) ;
#206 = EDGE_CURVE ( 'NONE', #204, #207, #278, .T. ) ;
#207 = VERTEX_POINT ( 'NONE', #273 ) ;
#208 = EDGE_CURVE ( 'NONE', #182, #209, #272, .T. ) ;
#209 = VERTEX_POINT ( 'NONE', #69 ) ;
#210 = ORIENTED_EDGE ( 'NONE', *, *, #211, .F. ) ;
#211 = EDGE_CURVE ( 'NONE', #212, #209, #85, .T. ) ;
#212 = VERTEX_POINT ( 'NONE', #84 ) ;
#213 = ORIENTED_EDGE ( 'NONE', *, *, #214, .F. ) ;
#214 = EDGE_CURVE ( 'NONE', #181, #212, #72, .T. ) ;
#215 = ADVANCED_FACE ( 'NONE', ( #67 ), #32, .T. ) ;
#216 = EDGE_LOOP ( 'NONE', ( #217, #218, #220, #196 ) ) ;
#217 = ORIENTED_EDGE ( 'NONE', *, *, #208, .F. ) ;
#218 = ORIENTED_EDGE ( 'NONE', *, *, #219, .T. ) ;
#219 = EDGE_CURVE ( 'NONE', #182, #181, #34, .T. ) ;
#220 = ORIENTED_EDGE ( 'NONE', *, *, #214, .T. ) ;
#221 = ORIENTED_EDGE ( 'NONE', *, *, #222, .F. ) ;
#222 = EDGE_CURVE ( 'NONE', #201, #207, #80, .T. ) ;
#223 = ADVANCED_FACE ( 'NONE', ( #76 ), #30, .F. ) ;
#224 = EDGE_LOOP ( 'NONE', ( #225, #170, #172, #175 ) ) ;
#225 = ORIENTED_EDGE ( 'NONE', *, *, #226, .F. ) ;
#226 = EDGE_CURVE ( 'NONE', #227, #228, #28, .T. ) ;
#227 = VERTEX_POINT ( 'NONE', #20 ) ;
#228 = VERTEX_POINT ( 'NONE', #19 ) ;
#229 = VERTEX_POINT ( 'NONE', #18 ) ;
#230 = ADVANCED_FACE ( 'NONE', ( #17, #16 ), #15, .T. ) ;
#231 = ORIENTED_EDGE ( 'NONE', *, *, #171, .F. ) ;
#232 = ORIENTED_EDGE ( 'NONE', *, *, #233, .F. ) ;
#233 = EDGE_CURVE ( 'NONE', #228, #227, #10, .T. ) ;
#234 = ORIENTED_EDGE ( 'NONE', *, *, #176, .T. ) ;
#235 = ORIENTED_EDGE ( 'NONE', *, *, #302, .T. ) ;
#236 = ADVANCED_FACE ( 'NONE', ( #5, #4 ), #1, .F. ) ;
#237 = EDGE_LOOP ( 'NONE', ( #238, #240 ) ) ;
#238 = ORIENTED_EDGE ( 'NONE', *, *, #239, .F. ) ;
#239 = EDGE_CURVE ( 'NONE', #207, #204, #43, .T. ) ;
#240 = ORIENTED_EDGE ( 'NONE', *, *, #206, .F. ) ;
#241 = ORIENTED_EDGE ( 'NONE', *, *, #302, .F. ) ;
#242 = FACE_OUTER_BOUND ( 'NONE', #178, .T. ) ;
#243 = DIRECTION ( 'NONE',  ( 1.054446644552012600E-032, -1.294224922628223600E-031, 1.000000000000000000 ) ) ;
#244 = VECTOR ( 'NONE', #243, 39.37007874015748100 ) ;
#245 = CARTESIAN_POINT ( 'NONE',  ( 0.2187499999999997800, 0.0000000000000000000, 5.382071414900889300E-033 ) ) ;
#246 = LINE ( 'NONE', #245, #244 ) ;
#247 = CARTESIAN_POINT ( 'NONE',  ( 0.2187499999999997200, 0.0000000000000000000, 5.382071414900887900E-033 ) ) ;
#248 = DIRECTION ( 'NONE',  ( 1.000000000000000000, 0.0000000000000000000, 2.460375503954694600E-032 ) ) ;
#249 = DIRECTION ( 'NONE',  ( 1.054446644552012600E-032, -1.294224922628223600E-031, 1.000000000000000000 ) ) ;
#250 = CARTESIAN_POINT ( 'NONE',  ( -4.739000847409537200E-033, 0.0000000000000000000, 0.0000000000000000000 ) ) ;
#251 = AXIS2_PLACEMENT_3D ( 'NONE', #250, #249, #248 ) ;
#252 = CIRCLE ( 'NONE', #251, 0.2187499999999997200 ) ;
#253 = DIRECTION ( 'NONE',  ( 1.054446644552012600E-032, -1.294224922628223600E-031, 1.000000000000000000 ) ) ;
#254 = VECTOR ( 'NONE', #253, 39.37007874015748100 ) ;
#255 = CARTESIAN_POINT ( 'NONE',  ( -0.2187499999999997800, 2.678826398986445000E-017, -5.382071414900886500E-033 ) ) ;
#256 = DIRECTION ( 'NONE',  ( 1.000000000000000000, 0.0000000000000000000, 0.0000000000000000000 ) ) ;
#257 = DIRECTION ( 'NONE',  ( 1.054446644552012600E-032, -1.294224922628223600E-031, 1.000000000000000000 ) ) ;
#258 = CARTESIAN_POINT ( 'NONE',  ( -4.561288315631679600E-032, 9.098881627026311400E-032, -0.6729999999999989300 ) ) ;
#259 = AXIS2_PLACEMENT_3D ( 'NONE', #258, #257, #256 ) ;
#260 = CIRCLE ( 'NONE', #259, 0.1329999999999998100 ) ;
#261 = LINE ( 'NONE', #255, #254 ) ;
#262 = DIRECTION ( 'NONE',  ( 1.000000000000000000, 0.0000000000000000000, 2.460375503954694600E-032 ) ) ;
#263 = DIRECTION ( 'NONE',  ( -2.460375503954694600E-032, -1.294224922628223400E-031, 1.000000000000000000 ) ) ;
#264 = CARTESIAN_POINT ( 'NONE',  ( -4.561288315631679600E-032, 9.098881627026311400E-032, -0.6729999999999989300 ) ) ;
#265 = AXIS2_PLACEMENT_3D ( 'NONE', #264, #263, #262 ) ;
#266 = PLANE ( 'NONE',  #265 ) ;
#267 = FACE_OUTER_BOUND ( 'NONE', #299, .T. ) ;
#268 = FACE_BOUND ( 'NONE', #167, .T. ) ;
#269 = DIRECTION ( 'NONE',  ( 1.054446644552012600E-032, -1.294224922628223600E-031, 1.000000000000000000 ) ) ;
#270 = VECTOR ( 'NONE', #269, 39.37007874015748100 ) ;
#271 = CARTESIAN_POINT ( 'NONE',  ( -0.6249999999999997800, 7.653789711389855400E-017, -0.6729999999999989300 ) ) ;
#272 = LINE ( 'NONE', #271, #270 ) ;
#273 = CARTESIAN_POINT ( 'NONE',  ( 0.1329999999999999500, 4.170320745720392400E-032, -0.2699999999999994600 ) ) ;
#274 = DIRECTION ( 'NONE',  ( 1.000000000000000000, 0.0000000000000000000, 0.0000000000000000000 ) ) ;
#275 = DIRECTION ( 'NONE',  ( 1.054446644552012600E-032, -1.294224922628223600E-031, 1.000000000000000000 ) ) ;
#276 = CARTESIAN_POINT ( 'NONE',  ( -3.649030652505343700E-032, 4.170320745720392400E-032, -0.2699999999999994600 ) ) ;
#277 = AXIS2_PLACEMENT_3D ( 'NONE', #276, #275, #274 ) ;
#278 = CIRCLE ( 'NONE', #277, 0.1329999999999999500 ) ;
#279 = CARTESIAN_POINT ( 'NONE',  ( -0.1330000000000000300, 1.628726450583766400E-017, -0.2699999999999994600 ) ) ;
#280 = DIRECTION ( 'NONE',  ( 1.054446644552012600E-032, -1.294224922628223600E-031, 1.000000000000000000 ) ) ;
#281 = VECTOR ( 'NONE', #280, 39.37007874015748100 ) ;
#282 = CARTESIAN_POINT ( 'NONE',  ( -0.1329999999999998700, 1.628726450583758400E-017, -3.272299420259738400E-033 ) ) ;
#283 = LINE ( 'NONE', #282, #281 ) ;
#284 = DIRECTION ( 'NONE',  ( 1.000000000000000000, 0.0000000000000000000, 2.460375503954694600E-032 ) ) ;
#285 = DIRECTION ( 'NONE',  ( 1.054446644552012600E-032, -1.294224922628223600E-031, 1.000000000000000000 ) ) ;
#286 = CARTESIAN_POINT ( 'NONE',  ( -4.739000847409537200E-033, 0.0000000000000000000, 0.0000000000000000000 ) ) ;
#287 = AXIS2_PLACEMENT_3D ( 'NONE', #286, #285, #284 ) ;
#288 = CARTESIAN_POINT ( 'NONE',  ( 0.1329999999999998100, 9.098881627026311400E-032, -0.6729999999999989300 ) ) ;
#289 = CYLINDRICAL_SURFACE ( 'NONE', #287, 0.2187499999999997800 ) ;
#290 = DIRECTION ( 'NONE',  ( 1.000000000000000000, 0.0000000000000000000, 2.460375503954695200E-032 ) ) ;
#291 = DIRECTION ( 'NONE',  ( 1.054446644552012600E-032, -1.294224922628223600E-031, 1.000000000000000000 ) ) ;
#292 = CARTESIAN_POINT ( 'NONE',  ( -4.739000847409537200E-033, 0.0000000000000000000, 0.0000000000000000000 ) ) ;
#293 = AXIS2_PLACEMENT_3D ( 'NONE', #292, #291, #290 ) ;
#294 = CIRCLE ( 'NONE', #293, 0.6249999999999997800 ) ;
#295 = FACE_OUTER_BOUND ( 'NONE', #199, .T. ) ;
#296 = CARTESIAN_POINT ( 'NONE',  ( -0.1329999999999998700, 1.628726450583764800E-017, -0.6729999999999989300 ) ) ;
#297 = DIRECTION ( 'NONE',  ( 1.000000000000000000, 0.0000000000000000000, 0.0000000000000000000 ) ) ;
#298 = DIRECTION ( 'NONE',  ( 1.054446644552012600E-032, -1.294224922628223600E-031, 1.000000000000000000 ) ) ;
#299 = EDGE_LOOP ( 'NONE', ( #303, #300 ) ) ;
#300 = ORIENTED_EDGE ( 'NONE', *, *, #219, .F. ) ;
#301 = ORIENTED_EDGE ( 'NONE', *, *, #197, .T. ) ;
#302 = EDGE_CURVE ( 'NONE', #174, #229, #36, .T. ) ;
#303 = ORIENTED_EDGE ( 'NONE', *, *, #180, .F. ) ;
#304 = ORIENTED_EDGE ( 'NONE', *, *, #173, .F. ) ;
#305 = ORIENTED_EDGE ( 'NONE', *, *, #211, .T. ) ;
#306 = EDGE_LOOP ( 'NONE', ( #307, #308 ) ) ;
#307 = ORIENTED_EDGE ( 'NONE', *, *, #233, .T. ) ;
#308 = ORIENTED_EDGE ( 'NONE', *, *, #226, .T. ) ;
#309 = ADVANCED_FACE ( 'NONE', ( #60 ), #59, .F. ) ;
#310 = EDGE_LOOP ( 'NONE', ( #311, #189, #188, #186 ) ) ;
#311 = ORIENTED_EDGE ( 'NONE', *, *, #203, .F. ) ;
#312 = CARTESIAN_POINT ( 'NONE',  ( -4.561288315631679600E-032, 9.098881627026311400E-032, -0.6729999999999989300 ) ) ;
#313 = AXIS2_PLACEMENT_3D ( 'NONE', #312, #298, #297 ) ;
#314 = CIRCLE ( 'NONE', #313, 0.1329999999999998100 ) ;
#315 = DIRECTION ( 'NONE',  ( 1.000000000000000000, 0.0000000000000000000, 2.460375503954694900E-032 ) ) ;
#316 = DIRECTION ( 'NONE',  ( 1.054446644552012600E-032, -1.294224922628223600E-031, 1.000000000000000000 ) ) ;
#317 = CARTESIAN_POINT ( 'NONE',  ( -4.739000847409537200E-033, 0.0000000000000000000, 0.0000000000000000000 ) ) ;
#318 = AXIS2_PLACEMENT_3D ( 'NONE', #317, #316, #315 ) ;
#319 = CYLINDRICAL_SURFACE ( 'NONE', #318, 0.1329999999999998700 ) ;
#320 = FACE_OUTER_BOUND ( 'NONE', #192, .T. ) ;
#321 = CARTESIAN_POINT ( 'NONE',  ( -0.6250000000000000000, 7.653789711389854200E-017, -0.6729999999999989300 ) ) ;
#322 = CARTESIAN_POINT ( 'NONE',  ( 0.6249999999999997800, 9.098881627026311400E-032, -0.6729999999999989300 ) ) ;
#323 = DIRECTION ( 'NONE',  ( 1.000000000000000000, 0.0000000000000000000, 0.0000000000000000000 ) ) ;
#324 = DIRECTION ( 'NONE',  ( 1.054446644552012600E-032, -1.294224922628223600E-031, 1.000000000000000000 ) ) ;
#325 = CARTESIAN_POINT ( 'NONE',  ( -4.561288315631679600E-032, 9.098881627026311400E-032, -0.6729999999999989300 ) ) ;
#326 = AXIS2_PLACEMENT_3D ( 'NONE', #325, #324, #323 ) ;
#327 = DIRECTION ( 'NONE',  ( 1.000000000000000000, 0.0000000000000000000, 0.0000000000000000000 ) ) ;
#328 = DIRECTION ( 'NONE',  ( 1.054446644552012600E-032, -1.294224922628223600E-031, 1.000000000000000000 ) ) ;
#329 = CARTESIAN_POINT ( 'NONE',  ( -4.561288315631679600E-032, 9.098881627026311400E-032, -0.6729999999999989300 ) ) ;
#330 = AXIS2_PLACEMENT_3D ( 'NONE', #329, #328, #327 ) ;
#331 = CYLINDRICAL_SURFACE ( 'NONE', #330, 0.6249999999999997800 ) ;
#332 = CIRCLE ( 'NONE', #326, 0.6249999999999997800 ) ;
ENDSEC;
END-ISO-10303-21;
