ISO-10303-21;
HEADER;
FILE_DESCRIPTION (( 'STEP AP203' ),
    '1' );
FILE_NAME ('D020334-v2_aLIGO_SUS_HSTS_Lower Blade Clamp, Lower Side, Angled 1.0.STEP',
    '2010-06-24T17:28:05',
    ( 'Dwayne Giardina' ),
    ( 'CA Institute of Technology' ),
    'SwSTEP 2.0',
    'SolidWorks 2009',
    '' );
FILE_SCHEMA (( 'CONFIG_CONTROL_DESIGN' ));
ENDSEC;

DATA;
#1 = PRODUCT ( 'D020334-v2_aLIGO_SUS_HSTS_Lower Blade Clamp, Lower Side, Angled 1.0', 'D020334-v2_aLIGO_SUS_HSTS_Lower Blade Clamp, Lower Side, Angled 1.0', '', ( #110 ) ) ;
#2 = PERSON ( 'UNSPECIFIED', 'UNSPECIFIED', 'UNSPECIFIED', ('UNSPECIFIED'), ('UNSPECIFIED'), ('UNSPECIFIED') ) ;
#3 = CARTESIAN_POINT ( 'NONE',  ( 0.1969999999999999800, 0.0000000000000000000, -0.1968503950000000100 ) ) ;
#4 = DIRECTION ( 'NONE',  ( -0.0000000000000000000, 1.000000000000000000, -0.0000000000000000000 ) ) ;
#5 = DIRECTION ( 'NONE',  ( -0.0000000000000000000, 0.01745240643727672200, -0.9998476951563912700 ) ) ;
#6 = CARTESIAN_POINT ( 'NONE',  ( -0.6656692913385826600, 0.1970000000000000100, -0.3937007900000000200 ) ) ;
#7 = CARTESIAN_POINT ( 'NONE',  ( -0.3543307086614173000, 0.1970000000000000400, -0.3937007900000000200 ) ) ;
#8 = CARTESIAN_POINT ( 'NONE',  ( 0.3543307086614173000, 0.1970000000000000100, -0.3937007900000000200 ) ) ;
#9 = APPROVAL_ROLE ( '' ) ;
#10 = DIRECTION ( 'NONE',  ( 1.000000000000000000, 1.224606353822377500E-016, 0.0000000000000000000 ) ) ;
#11 = DIRECTION ( 'NONE',  ( -0.0000000000000000000, 1.000000000000000000, -0.0000000000000000000 ) ) ;
#12 = DIRECTION ( 'NONE',  ( 1.224606353822377500E-016, -1.000000000000000000, 0.0000000000000000000 ) ) ;
#13 = DIRECTION ( 'NONE',  ( -1.000000000000000000, 0.0000000000000000000, 0.0000000000000000000 ) ) ;
#14 = DIRECTION ( 'NONE',  ( 1.000000000000000000, 1.224606353822377500E-016, 0.0000000000000000000 ) ) ;
#15 = VERTEX_POINT ( 'NONE', #143 ) ;
#16 = DIRECTION ( 'NONE',  ( 0.0000000000000000000, 0.0000000000000000000, 1.000000000000000000 ) ) ;
#17 = PERSON_AND_ORGANIZATION_ROLE ( 'creator' ) ;
#18 = DIRECTION ( 'NONE',  ( 1.000000000000000000, 1.224606353822377500E-016, 0.0000000000000000000 ) ) ;
#19 = CARTESIAN_POINT ( 'NONE',  ( 0.1969999999999999800, 0.1950476440930289700, -0.2818503949999999800 ) ) ;
#20 = CARTESIAN_POINT ( 'NONE',  ( 0.1969999999999999800, 0.0000000000000000000, -0.1968503950000000100 ) ) ;
#21 = DIRECTION ( 'NONE',  ( -0.0000000000000000000, 1.000000000000000000, -0.0000000000000000000 ) ) ;
#22 = CARTESIAN_POINT ( 'NONE',  ( -0.1970000000000000400, -0.8029999999999998300, -0.2818503949999999800 ) ) ;
#23 = CARTESIAN_POINT ( 'NONE',  ( -0.1970000000000000400, -0.8029999999999998300, -0.1968503949999999800 ) ) ;
#24 = CARTESIAN_POINT ( 'NONE',  ( -0.1970000000000000400, 0.0000000000000000000, -0.1968503949999999800 ) ) ;
#25 = CARTESIAN_POINT ( 'NONE',  ( -0.3543307086614173000, -4.339156371811573000E-017, 0.0000000000000000000 ) ) ;
#26 = VERTEX_POINT ( 'NONE', #142 ) ;
#27 = PLANE ( 'NONE',  #180 ) ;
#28 = DIRECTION ( 'NONE',  ( -0.0000000000000000000, 1.000000000000000000, -0.0000000000000000000 ) ) ;
#29 = DATE_TIME_ROLE ( 'creation_date' ) ;
#30 = DIRECTION ( 'NONE',  ( 1.224606353822377500E-016, -1.000000000000000000, 0.0000000000000000000 ) ) ;
#31 = VERTEX_POINT ( 'NONE', #79 ) ;
#32 = DIRECTION ( 'NONE',  ( 0.0000000000000000000, 0.0000000000000000000, 1.000000000000000000 ) ) ;
#33 = VERTEX_POINT ( 'NONE', #84 ) ;
#34 = VERTEX_POINT ( 'NONE', #91 ) ;
#35 = DIRECTION ( 'NONE',  ( 1.224606353822377500E-016, -1.000000000000000000, 0.0000000000000000000 ) ) ;
#36 = CARTESIAN_POINT ( 'NONE',  ( -0.3543307086614173000, -4.339156371811573000E-017, -0.3937007900000000200 ) ) ;
#37 = DIRECTION ( 'NONE',  ( -1.000000000000000000, 4.818676322157797600E-017, -0.0000000000000000000 ) ) ;
#38 = CARTESIAN_POINT ( 'NONE',  ( 0.1969999999999999800, -0.8029999999999998300, -0.1118503950000000500 ) ) ;
#39 = VERTEX_POINT ( 'NONE', #93 ) ;
#40 = PERSON_AND_ORGANIZATION_ROLE ( 'design_owner' ) ;
#41 = APPROVAL_ROLE ( '' ) ;
#42 = VERTEX_POINT ( 'NONE', #92 ) ;
#43 = CARTESIAN_POINT ( 'NONE',  ( -0.1970000000000000400, 0.1950476440930289700, -0.2818503949999999800 ) ) ;
#44 = DIRECTION ( 'NONE',  ( -0.0000000000000000000, 1.000000000000000000, -0.0000000000000000000 ) ) ;
#45 = CARTESIAN_POINT ( 'NONE',  ( 0.0000000000000000000, 0.0000000000000000000, 0.0000000000000000000 ) ) ;
#46 = APPROVAL_ROLE ( '' ) ;
#47 = PERSON_AND_ORGANIZATION_ROLE ( 'creator' ) ;
#48 = VERTEX_POINT ( 'NONE', #85 ) ;
#49 = CARTESIAN_POINT ( 'NONE',  ( -0.3669999999999999400, 0.1950476440930290200, -0.2818503949999999800 ) ) ;
#50 = APPROVAL_STATUS ( 'not_yet_approved' ) ;
#51 = VERTEX_POINT ( 'NONE', #76 ) ;
#52 = PERSON_AND_ORGANIZATION_ROLE ( 'design_supplier' ) ;
#53 = APPROVAL_STATUS ( 'not_yet_approved' ) ;
#54 = DIRECTION ( 'NONE',  ( -0.0000000000000000000, -1.000000000000000000, -0.0000000000000000000 ) ) ;
#55 = APPROVAL_STATUS ( 'not_yet_approved' ) ;
#56 = APPLICATION_PROTOCOL_DEFINITION ( 'international standard', 'config_control_design', 1994, #65 ) ;
#57 = DIRECTION ( 'NONE',  ( 0.0000000000000000000, 0.0000000000000000000, -1.000000000000000000 ) ) ;
#58 = SECURITY_CLASSIFICATION_LEVEL ( 'unclassified' ) ;
#59 = VERTEX_POINT ( 'NONE', #60 ) ;
#60 = CARTESIAN_POINT ( 'NONE',  ( -0.1970000000000000400, 0.1950476440930289700, -0.2818503949999999800 ) ) ;
#61 = DIRECTION ( 'NONE',  ( 0.0000000000000000000, -0.9998476951563913800, -0.01745240643727672500 ) ) ;
#62 = CARTESIAN_POINT ( 'NONE',  ( -0.1970000000000000400, 0.0000000000000000000, -0.1968503949999999800 ) ) ;
#63 = DIRECTION ( 'NONE',  ( 0.0000000000000000000, 0.0000000000000000000, 1.000000000000000000 ) ) ;
#64 = VERTEX_POINT ( 'NONE', #82 ) ;
#65 = APPLICATION_CONTEXT ( 'configuration controlled 3d designs of mechanical parts and assemblies' ) ;
#66 =( NAMED_UNIT ( * ) PLANE_ANGLE_UNIT ( ) SI_UNIT ( $, .RADIAN. ) );
#67 = DIRECTION ( 'NONE',  ( 0.0000000000000000000, 0.01745240643727672200, -0.9998476951563912700 ) ) ;
#68 = CARTESIAN_POINT ( 'NONE',  ( 0.3543307086614173000, 0.1970000000000000100, 0.0000000000000000000 ) ) ;
#69 = DIRECTION ( 'NONE',  ( -0.0000000000000000000, 1.000000000000000000, -0.0000000000000000000 ) ) ;
#70 = PLANE ( 'NONE',  #193 ) ;
#71 = DIRECTION ( 'NONE',  ( 0.0000000000000000000, 0.0000000000000000000, 1.000000000000000000 ) ) ;
#72 = CARTESIAN_POINT ( 'NONE',  ( -0.1970000000000000400, 0.1920802830552332000, -0.1118503950000000100 ) ) ;
#73 = DIRECTION ( 'NONE',  ( -1.000000000000000000, 0.0000000000000000000, -0.0000000000000000000 ) ) ;
#74 = CARTESIAN_POINT ( 'NONE',  ( -0.3543307086614173000, 2.073152488754191300E-020, 0.0000000000000000000 ) ) ;
#75 = CARTESIAN_POINT ( 'NONE',  ( -0.02700000000000011400, 0.1920802830552331700, -0.1118503949999999800 ) ) ;
#76 = CARTESIAN_POINT ( 'NONE',  ( 0.1969999999999999800, 0.0000000000000000000, -0.2818503949999999800 ) ) ;
#77 = DIRECTION ( 'NONE',  ( 1.000000000000000000, 1.224606353822377300E-016, -0.0000000000000000000 ) ) ;
#78 = CARTESIAN_POINT ( 'NONE',  ( 0.1969999999999999800, 0.0000000000000000000, -0.1118503950000000500 ) ) ;
#79 = CARTESIAN_POINT ( 'NONE',  ( -0.3543307086614173000, -4.339156371811573000E-017, 0.0000000000000000000 ) ) ;
#80 = CARTESIAN_POINT ( 'NONE',  ( 0.1969999999999999800, 0.1950476440930289700, -0.2818503949999999800 ) ) ;
#81 = CARTESIAN_POINT ( 'NONE',  ( 0.3543307086614173000, 0.1970000000000000100, -0.3937007900000000200 ) ) ;
#82 = CARTESIAN_POINT ( 'NONE',  ( -0.1970000000000000400, 0.0000000000000000000, -0.1118503950000000100 ) ) ;
#83 = CARTESIAN_POINT ( 'NONE',  ( 0.3543307086614173000, -2.073152488754191300E-020, 0.0000000000000000000 ) ) ;
#84 = CARTESIAN_POINT ( 'NONE',  ( -0.3543307086614173000, -4.339156371811573000E-017, -0.3937007900000000200 ) ) ;
#85 = CARTESIAN_POINT ( 'NONE',  ( 0.3543307086614173000, 0.1901279271482621300, 0.0000000000000000000 ) ) ;
#86 = CARTESIAN_POINT ( 'NONE',  ( -0.6656692913385826600, 0.1901279271482621300, 0.0000000000000000000 ) ) ;
#87 = DIRECTION ( 'NONE',  ( 1.000000000000000000, -0.0000000000000000000, -0.0000000000000000000 ) ) ;
#88 = CARTESIAN_POINT ( 'NONE',  ( 0.3543307086614173000, -2.073152488754191300E-020, -0.3937007900000000200 ) ) ;
#89 = DIRECTION ( 'NONE',  ( 0.0000000000000000000, 0.0000000000000000000, 1.000000000000000000 ) ) ;
#90 = CARTESIAN_POINT ( 'NONE',  ( -0.1970000000000000400, 0.1950476440930289700, -0.2818503949999999800 ) ) ;
#91 = CARTESIAN_POINT ( 'NONE',  ( 0.1969999999999999800, 0.1920802830552332000, -0.1118503950000000500 ) ) ;
#92 = CARTESIAN_POINT ( 'NONE',  ( -0.1970000000000000400, 0.0000000000000000000, -0.2818503949999999800 ) ) ;
#93 = CARTESIAN_POINT ( 'NONE',  ( -0.3543307086614173000, 0.1970000000000000100, -0.3937007900000000200 ) ) ;
#94 = CARTESIAN_POINT ( 'NONE',  ( 0.3669999999999999400, 0.1920802830552331700, -0.1118503950000000200 ) ) ;
#95 = CARTESIAN_POINT ( 'NONE',  ( 0.1969999999999999800, 0.1950476440930289700, -0.2818503949999999800 ) ) ;
#96 = VERTEX_POINT ( 'NONE', #78 ) ;
#97 = CARTESIAN_POINT ( 'NONE',  ( 0.3669999999999999400, 0.1950476440930290200, -0.2818503950000000900 ) ) ;
#98 = DIRECTION ( 'NONE',  ( -0.0000000000000000000, 1.000000000000000000, -0.0000000000000000000 ) ) ;
#99 = CARTESIAN_POINT ( 'NONE',  ( -0.3543307086614173000, -4.339156371811573000E-017, -0.3937007900000000200 ) ) ;
#100 =( LENGTH_UNIT ( ) NAMED_UNIT ( * ) SI_UNIT ( $, .METRE. ) );
#101 = CARTESIAN_POINT ( 'NONE',  ( 0.3543307086614173000, 0.1970000000000000100, -0.3937007900000000200 ) ) ;
#102 = CARTESIAN_POINT ( 'NONE',  ( 0.1969999999999999800, -0.8029999999999998300, -0.1968503950000000100 ) ) ;
#103 = CARTESIAN_POINT ( 'NONE',  ( -0.3669999999999999400, 0.1920802830552331700, -0.1118503950000000200 ) ) ;
#104 = CARTESIAN_POINT ( 'NONE',  ( -0.3543307086614173000, 0.1969399964613810200, -0.3902631895748049900 ) ) ;
#105 = CARTESIAN_POINT ( 'NONE',  ( 0.1969999999999999800, 0.1920802830552332000, -0.1118503950000000500 ) ) ;
#106 = DIRECTION ( 'NONE',  ( -0.0000000000000000000, -1.000000000000000000, -0.0000000000000000000 ) ) ;
#107 =( NAMED_UNIT ( * ) SI_UNIT ( $, .STERADIAN. ) SOLID_ANGLE_UNIT ( ) );
#108 = APPLICATION_CONTEXT ( 'configuration controlled 3d designs of mechanical parts and assemblies' ) ;
#109 = PERSON_AND_ORGANIZATION_ROLE ( 'classification_officer' ) ;
#110 = MECHANICAL_CONTEXT ( 'NONE', #108, 'mechanical' ) ;
#111 = APPLICATION_PROTOCOL_DEFINITION ( 'international standard', 'config_control_design', 1994, #108 ) ;
#112 =( CONVERSION_BASED_UNIT ( 'INCH', #239 ) LENGTH_UNIT ( ) NAMED_UNIT ( #161 ) );
#113 = CARTESIAN_POINT ( 'NONE',  ( 0.0000000000000000000, 0.0000000000000000000, 0.0000000000000000000 ) ) ;
#114 = DIRECTION ( 'NONE',  ( 0.0000000000000000000, 0.0000000000000000000, 1.000000000000000000 ) ) ;
#115 = DIRECTION ( 'NONE',  ( 1.000000000000000000, 0.0000000000000000000, 0.0000000000000000000 ) ) ;
#116 = PLANE ( 'NONE',  #190 ) ;
#117 = CARTESIAN_POINT ( 'NONE',  ( -0.1970000000000000400, 0.1920802830552332000, -0.1118503950000000100 ) ) ;
#118 = DIRECTION ( 'NONE',  ( 1.224606353822377500E-016, -1.000000000000000000, 0.0000000000000000000 ) ) ;
#119 = CARTESIAN_POINT ( 'NONE',  ( 0.1969999999999999800, 0.1920802830552332000, -0.1118503950000000500 ) ) ;
#120 = CARTESIAN_POINT ( 'NONE',  ( -0.3543307086614173000, 2.073152488754191300E-020, -0.3937007900000000200 ) ) ;
#121 = CARTESIAN_POINT ( 'NONE',  ( -0.1970000000000000400, -0.8029999999999998300, -0.1968503949999999800 ) ) ;
#122 = DIRECTION ( 'NONE',  ( 0.0000000000000000000, 0.0000000000000000000, 1.000000000000000000 ) ) ;
#123 = DIRECTION ( 'NONE',  ( 1.000000000000000000, -5.850897023817385100E-020, -0.0000000000000000000 ) ) ;
#124 = DIRECTION ( 'NONE',  ( -1.000000000000000000, 0.0000000000000000000, -0.0000000000000000000 ) ) ;
#125 = VERTEX_POINT ( 'NONE', #83 ) ;
#126 = CARTESIAN_POINT ( 'NONE',  ( 0.1969999999999999800, -0.8029999999999998300, -0.2818503949999999800 ) ) ;
#127 = CARTESIAN_POINT ( 'NONE',  ( 0.1969999999999999800, -0.8029999999999998300, -0.1968503950000000100 ) ) ;
#128 = DIRECTION ( 'NONE',  ( -0.0000000000000000000, 1.000000000000000000, -0.0000000000000000000 ) ) ;
#129 = CARTESIAN_POINT ( 'NONE',  ( 0.0000000000000000000, 0.0000000000000000000, -0.3937007900000000200 ) ) ;
#130 = DIRECTION ( 'NONE',  ( 0.0000000000000000000, 0.0000000000000000000, -1.000000000000000000 ) ) ;
#131 = DIRECTION ( 'NONE',  ( 1.000000000000000000, 1.224606353822377500E-016, 0.0000000000000000000 ) ) ;
#132 = DIRECTION ( 'NONE',  ( 1.000000000000000000, 0.0000000000000000000, -0.0000000000000000000 ) ) ;
#133 = PLANE ( 'NONE',  #221 ) ;
#134 = DIRECTION ( 'NONE',  ( -0.0000000000000000000, 0.0000000000000000000, -1.000000000000000000 ) ) ;
#135 = DIRECTION ( 'NONE',  ( -0.0000000000000000000, 1.000000000000000000, -0.0000000000000000000 ) ) ;
#136 = CARTESIAN_POINT ( 'NONE',  ( 0.02700000000000004800, 0.1920802830552331700, -0.1118503950000000600 ) ) ;
#137 = DIRECTION ( 'NONE',  ( 0.0000000000000000000, -0.01745240643727672200, 0.9998476951563912700 ) ) ;
#138 = CARTESIAN_POINT ( 'NONE',  ( -0.1970000000000000400, 0.1920802830552332000, -0.1118503950000000100 ) ) ;
#139 = CARTESIAN_POINT ( 'NONE',  ( -0.1970000000000000400, -0.8029999999999998300, -0.1118503950000000100 ) ) ;
#140 = DIRECTION ( 'NONE',  ( 1.224606353822377500E-016, -1.000000000000000000, 0.0000000000000000000 ) ) ;
#141 = CARTESIAN_POINT ( 'NONE',  ( 0.02700000000000004800, 0.1950476440930290200, -0.2818503950000000900 ) ) ;
#142 = CARTESIAN_POINT ( 'NONE',  ( -0.3543307086614173000, 0.1901279271482621300, 0.0000000000000000000 ) ) ;
#143 = CARTESIAN_POINT ( 'NONE',  ( 0.3543307086614173000, -2.073152488754191300E-020, -0.3937007900000000200 ) ) ;
#144 = PLANE ( 'NONE',  #218 ) ;
#145 = CARTESIAN_POINT ( 'NONE',  ( 0.3543307086614173000, 0.1970000000000000100, -0.3937007900000000200 ) ) ;
#146 = DIRECTION ( 'NONE',  ( -0.0000000000000000000, 1.000000000000000000, -0.0000000000000000000 ) ) ;
#147 = CARTESIAN_POINT ( 'NONE',  ( -0.02700000000000011400, 0.1950476440930290200, -0.2818503949999999800 ) ) ;
#148 = CARTESIAN_POINT ( 'NONE',  ( 0.3543307086614173000, -2.073152488754191300E-020, -0.3937007900000000200 ) ) ;
#149 = DATE_TIME_ROLE ( 'classification_date' ) ;
#150 = VERTEX_POINT ( 'NONE', #81 ) ;
#151 = PLANE ( 'NONE',  #187 ) ;
#152 = DIRECTION ( 'NONE',  ( 1.000000000000000000, 1.224606353822377500E-016, 0.0000000000000000000 ) ) ;
#153 = VERTEX_POINT ( 'NONE', #80 ) ;
#154 = VERTEX_POINT ( 'NONE', #117 ) ;
#155 = CARTESIAN_POINT ( 'NONE',  ( -0.3543307086614173000, -4.339156371811573000E-017, -0.3937007900000000200 ) ) ;
#156 = DIRECTION ( 'NONE',  ( 0.0000000000000000000, 0.0000000000000000000, 1.000000000000000000 ) ) ;
#157 = ADVANCED_FACE ( 'NONE', ( #370, #280, #386 ), #116, .F. ) ;
#158 = ADVANCED_FACE ( 'NONE', ( #375 ), #355, .F. ) ;
#159 = ADVANCED_FACE ( 'NONE', ( #356 ), #354, .F. ) ;
#160 = ADVANCED_FACE ( 'NONE', ( #281 ), #151, .F. ) ;
#161 = DIMENSIONAL_EXPONENTS ( 1.000000000000000000, 0.0000000000000000000, 0.0000000000000000000, 0.0000000000000000000, 0.0000000000000000000, 0.0000000000000000000, 0.0000000000000000000 ) ;
#162 = ADVANCED_FACE ( 'NONE', ( #378 ), #377, .F. ) ;
#163 = ADVANCED_FACE ( 'NONE', ( #244 ), #70, .T. ) ;
#164 = ADVANCED_FACE ( 'NONE', ( #383 ), #144, .T. ) ;
#165 = ADVANCED_FACE ( 'NONE', ( #371 ), #384, .F. ) ;
#166 = ADVANCED_FACE ( 'NONE', ( #380, #366, #388 ), #133, .T. ) ;
#167 = ADVANCED_FACE ( 'NONE', ( #287 ), #27, .T. ) ;
#168 = CC_DESIGN_DATE_AND_TIME_ASSIGNMENT ( #243, #149, ( #238 ) ) ;
#169 = CC_DESIGN_SECURITY_CLASSIFICATION ( #238, ( #195 ) ) ;
#170 = EDGE_CURVE ( 'NONE', #64, #42, #363, .T. ) ;
#171 = APPROVAL ( #53, 'UNSPECIFIED' ) ;
#172 = EDGE_CURVE ( 'NONE', #51, #96, #364, .T. ) ;
#173 = EDGE_CURVE ( 'NONE', #26, #31, #357, .T. ) ;
#174 = EDGE_CURVE ( 'NONE', #42, #59, #348, .T. ) ;
#175 = EDGE_CURVE ( 'NONE', #150, #39, #345, .T. ) ;
#176 = APPROVAL ( #50, 'UNSPECIFIED' ) ;
#177 = CC_DESIGN_DATE_AND_TIME_ASSIGNMENT ( #258, #29, ( #204 ) ) ;
#178 = AXIS2_PLACEMENT_3D ( 'NONE', #23, #4, #63 ) ;
#179 = EDGE_CURVE ( 'NONE', #96, #51, #359, .T. ) ;
#180 = AXIS2_PLACEMENT_3D ( 'NONE', #36, #13, #32 ) ;
#181 = AXIS2_PLACEMENT_3D ( 'NONE', #20, #30, #152 ) ;
#182 = AXIS2_PLACEMENT_3D ( 'NONE', #3, #12, #14 ) ;
#183 = AXIS2_PLACEMENT_3D ( 'NONE', #102, #44, #16 ) ;
#184 = EDGE_CURVE ( 'NONE', #48, #150, #353, .T. ) ;
#185 = CC_DESIGN_PERSON_AND_ORGANIZATION_ASSIGNMENT ( #271, #17, ( #204 ) ) ;
#186 = EDGE_CURVE ( 'NONE', #51, #153, #349, .T. ) ;
#187 = AXIS2_PLACEMENT_3D ( 'NONE', #74, #57, #73 ) ;
#188 = EDGE_CURVE ( 'NONE', #96, #34, #351, .T. ) ;
#189 = EDGE_CURVE ( 'NONE', #42, #64, #319, .T. ) ;
#190 = AXIS2_PLACEMENT_3D ( 'NONE', #6, #61, #67 ) ;
#191 = EDGE_CURVE ( 'NONE', #31, #125, #362, .T. ) ;
#192 = CC_DESIGN_PERSON_AND_ORGANIZATION_ASSIGNMENT ( #256, #40, ( #1 ) ) ;
#193 = AXIS2_PLACEMENT_3D ( 'NONE', #120, #130, #124 ) ;
#194 = EDGE_CURVE ( 'NONE', #34, #153, #229, .T. ) ;
#195 = PRODUCT_DEFINITION_FORMATION_WITH_SPECIFIED_SOURCE ( 'ANY', '', #1, .NOT_KNOWN. ) ;
#196 = AXIS2_PLACEMENT_3D ( 'NONE', #127, #146, #122 ) ;
#197 = EDGE_CURVE ( 'NONE', #33, #31, #336, .T. ) ;
#198 = APPROVAL ( #55, 'UNSPECIFIED' ) ;
#199 = AXIS2_PLACEMENT_3D ( 'NONE', #24, #140, #18 ) ;
#200 = EDGE_CURVE ( 'NONE', #33, #15, #340, .T. ) ;
#201 = EDGE_CURVE ( 'NONE', #125, #48, #324, .T. ) ;
#202 = PRODUCT_RELATED_PRODUCT_CATEGORY ( 'detail', '', ( #1 ) ) ;
#203 = CC_DESIGN_APPROVAL ( #198, ( #204 ) ) ;
#204 = PRODUCT_DEFINITION ( 'UNKNOWN', '', #195, #228 ) ;
#205 = EDGE_CURVE ( 'NONE', #154, #59, #225, .T. ) ;
#206 = EDGE_CURVE ( 'NONE', #26, #48, #325, .T. ) ;
#207 = EDGE_CURVE ( 'NONE', #15, #125, #323, .T. ) ;
#208 = EDGE_CURVE ( 'NONE', #59, #154, #227, .T. ) ;
#209 = EDGE_CURVE ( 'NONE', #153, #34, #224, .T. ) ;
#210 = EDGE_CURVE ( 'NONE', #15, #150, #318, .T. ) ;
#211 = CC_DESIGN_APPROVAL ( #171, ( #238 ) ) ;
#212 = EDGE_CURVE ( 'NONE', #64, #154, #320, .T. ) ;
#213 = CC_DESIGN_PERSON_AND_ORGANIZATION_ASSIGNMENT ( #246, #47, ( #195 ) ) ;
#214 = CC_DESIGN_PERSON_AND_ORGANIZATION_ASSIGNMENT ( #245, #52, ( #195 ) ) ;
#215 = CC_DESIGN_PERSON_AND_ORGANIZATION_ASSIGNMENT ( #241, #109, ( #238 ) ) ;
#216 = CC_DESIGN_APPROVAL ( #176, ( #195 ) ) ;
#217 = AXIS2_PLACEMENT_3D ( 'NONE', #113, #114, #115 ) ;
#218 = AXIS2_PLACEMENT_3D ( 'NONE', #145, #132, #134 ) ;
#219 = EDGE_CURVE ( 'NONE', #39, #33, #316, .T. ) ;
#220 = EDGE_CURVE ( 'NONE', #39, #26, #331, .T. ) ;
#221 = AXIS2_PLACEMENT_3D ( 'NONE', #129, #118, #131 ) ;
#222 = AXIS2_PLACEMENT_3D ( 'NONE', #62, #35, #10 ) ;
#223 = AXIS2_PLACEMENT_3D ( 'NONE', #121, #69, #71 ) ;
#224 =( BOUNDED_CURVE ( )  B_SPLINE_CURVE ( 3, ( #95, #141, #136, #105 ),
 .UNSPECIFIED., .F., .T. ) 
 B_SPLINE_CURVE_WITH_KNOTS ( ( 4, 4 ),
 ( 0.0000000000000000000, 3.141592653589793100 ),
 .UNSPECIFIED. ) 
 CURVE ( )  GEOMETRIC_REPRESENTATION_ITEM ( )  RATIONAL_B_SPLINE_CURVE ( ( 1.000000000000000000, 0.3333333333333333700, 0.3333333333333333700, 1.000000000000000000 ) ) 
 REPRESENTATION_ITEM ( '' )  );
#225 =( BOUNDED_CURVE ( )  B_SPLINE_CURVE ( 3, ( #72, #75, #147, #43 ),
 .UNSPECIFIED., .F., .T. ) 
 B_SPLINE_CURVE_WITH_KNOTS ( ( 4, 4 ),
 ( 3.141592653589793100, 6.283185307179586200 ),
 .UNSPECIFIED. ) 
 CURVE ( )  GEOMETRIC_REPRESENTATION_ITEM ( )  RATIONAL_B_SPLINE_CURVE ( ( 1.000000000000000000, 0.3333333333333333700, 0.3333333333333333700, 1.000000000000000000 ) ) 
 REPRESENTATION_ITEM ( '' )  );
#226 = PRODUCT_DEFINITION_SHAPE ( 'NONE', 'NONE',  #204 ) ;
#227 =( BOUNDED_CURVE ( )  B_SPLINE_CURVE ( 3, ( #90, #49, #103, #138 ),
 .UNSPECIFIED., .F., .T. ) 
 B_SPLINE_CURVE_WITH_KNOTS ( ( 4, 4 ),
 ( 0.0000000000000000000, 3.141592653589793100 ),
 .UNSPECIFIED. ) 
 CURVE ( )  GEOMETRIC_REPRESENTATION_ITEM ( )  RATIONAL_B_SPLINE_CURVE ( ( 1.000000000000000000, 0.3333333333333333700, 0.3333333333333333700, 1.000000000000000000 ) ) 
 REPRESENTATION_ITEM ( '' )  );
#228 = DESIGN_CONTEXT ( 'detailed design', #65, 'design' ) ;
#229 =( BOUNDED_CURVE ( )  B_SPLINE_CURVE ( 3, ( #119, #94, #97, #19 ),
 .UNSPECIFIED., .F., .T. ) 
 B_SPLINE_CURVE_WITH_KNOTS ( ( 4, 4 ),
 ( 3.141592653589793100, 6.283185307179586200 ),
 .UNSPECIFIED. ) 
 CURVE ( )  GEOMETRIC_REPRESENTATION_ITEM ( )  RATIONAL_B_SPLINE_CURVE ( ( 1.000000000000000000, 0.3333333333333333700, 0.3333333333333333700, 1.000000000000000000 ) ) 
 REPRESENTATION_ITEM ( '' )  );
#230 = UNCERTAINTY_MEASURE_WITH_UNIT (LENGTH_MEASURE( 1.000000000000000100E-005 ), #112, 'distance_accuracy_value', 'NONE');
#231 = MANIFOLD_SOLID_BREP ( 'NONE', #369 ) ;
#232 = ADVANCED_BREP_SHAPE_REPRESENTATION ( 'D020334-v2_aLIGO_SUS_HSTS_Lower Blade Clamp, Lower Side, Angled 1.0', ( #231, #217 ), #269 ) ;
#233 = LOCAL_TIME ( 12, 28, 5.000000000000000000, #247 ) ;
#234 = CALENDAR_DATE ( 2010, 24, 6 ) ;
#235 = APPROVAL_PERSON_ORGANIZATION ( #262, #198, #41 ) ;
#236 = CALENDAR_DATE ( 2010, 24, 6 ) ;
#237 = COORDINATED_UNIVERSAL_TIME_OFFSET ( 6, 0, .BEHIND. ) ;
#238 = SECURITY_CLASSIFICATION ( '', '', #58 ) ;
#239 = LENGTH_MEASURE_WITH_UNIT ( LENGTH_MEASURE( 0.02539999999999999900 ), #100 );
#240 = APPROVAL_DATE_TIME ( #254, #176 ) ;
#241 = PERSON_AND_ORGANIZATION ( #2, #267 ) ;
#242 = ORIENTED_EDGE ( 'NONE', *, *, #175, .T. ) ;
#243 = DATE_AND_TIME ( #234, #233 ) ;
#244 = FACE_OUTER_BOUND ( 'NONE', #283, .T. ) ;
#245 = PERSON_AND_ORGANIZATION ( #2, #267 ) ;
#246 = PERSON_AND_ORGANIZATION ( #2, #267 ) ;
#247 = COORDINATED_UNIVERSAL_TIME_OFFSET ( 6, 0, .BEHIND. ) ;
#248 = DATE_AND_TIME ( #272, #257 ) ;
#249 = EDGE_LOOP ( 'NONE', ( #330, #313 ) ) ;
#250 = DATE_AND_TIME ( #236, #264 ) ;
#251 = APPROVAL_DATE_TIME ( #250, #171 ) ;
#252 = EDGE_LOOP ( 'NONE', ( #341, #329, #328, #304 ) ) ;
#253 = COORDINATED_UNIVERSAL_TIME_OFFSET ( 6, 0, .BEHIND. ) ;
#254 = DATE_AND_TIME ( #255, #275 ) ;
#255 = CALENDAR_DATE ( 2010, 24, 6 ) ;
#256 = PERSON_AND_ORGANIZATION ( #2, #267 ) ;
#257 = LOCAL_TIME ( 12, 28, 5.000000000000000000, #276 ) ;
#258 = DATE_AND_TIME ( #259, #265 ) ;
#259 = CALENDAR_DATE ( 2010, 24, 6 ) ;
#260 = ORIENTED_EDGE ( 'NONE', *, *, #207, .T. ) ;
#261 = APPROVAL_PERSON_ORGANIZATION ( #273, #176, #46 ) ;
#262 = PERSON_AND_ORGANIZATION ( #2, #267 ) ;
#263 = EDGE_LOOP ( 'NONE', ( #288, #282 ) ) ;
#264 = LOCAL_TIME ( 12, 28, 5.000000000000000000, #253 ) ;
#265 = LOCAL_TIME ( 12, 28, 5.000000000000000000, #237 ) ;
#266 = APPROVAL_PERSON_ORGANIZATION ( #268, #171, #9 ) ;
#267 = ORGANIZATION ( 'UNSPECIFIED', 'UNSPECIFIED', '' ) ;
#268 = PERSON_AND_ORGANIZATION ( #2, #267 ) ;
#269 =( GEOMETRIC_REPRESENTATION_CONTEXT ( 3 ) GLOBAL_UNCERTAINTY_ASSIGNED_CONTEXT ( ( #230 ) ) GLOBAL_UNIT_ASSIGNED_CONTEXT ( ( #112, #66, #107 ) ) REPRESENTATION_CONTEXT ( 'NONE', 'WORKASPACE' ) );
#270 = SHAPE_DEFINITION_REPRESENTATION ( #226, #232 ) ;
#271 = PERSON_AND_ORGANIZATION ( #2, #267 ) ;
#272 = CALENDAR_DATE ( 2010, 24, 6 ) ;
#273 = PERSON_AND_ORGANIZATION ( #2, #267 ) ;
#274 = COORDINATED_UNIVERSAL_TIME_OFFSET ( 6, 0, .BEHIND. ) ;
#275 = LOCAL_TIME ( 12, 28, 5.000000000000000000, #274 ) ;
#276 = COORDINATED_UNIVERSAL_TIME_OFFSET ( 6, 0, .BEHIND. ) ;
#277 = APPROVAL_DATE_TIME ( #248, #198 ) ;
#278 = ORIENTED_EDGE ( 'NONE', *, *, #186, .F. ) ;
#279 = ORIENTED_EDGE ( 'NONE', *, *, #184, .T. ) ;
#280 = FACE_BOUND ( 'NONE', #263, .T. ) ;
#281 = FACE_OUTER_BOUND ( 'NONE', #298, .T. ) ;
#282 = ORIENTED_EDGE ( 'NONE', *, *, #209, .F. ) ;
#283 = EDGE_LOOP ( 'NONE', ( #387, #373, #385, #361 ) ) ;
#284 = ORIENTED_EDGE ( 'NONE', *, *, #206, .T. ) ;
#285 = ORIENTED_EDGE ( 'NONE', *, *, #220, .F. ) ;
#286 = ORIENTED_EDGE ( 'NONE', *, *, #172, .F. ) ;
#287 = FACE_OUTER_BOUND ( 'NONE', #290, .T. ) ;
#288 = ORIENTED_EDGE ( 'NONE', *, *, #194, .F. ) ;
#289 = EDGE_LOOP ( 'NONE', ( #306, #344, #343, #372 ) ) ;
#290 = EDGE_LOOP ( 'NONE', ( #285, #301, #310, #376 ) ) ;
#291 = EDGE_LOOP ( 'NONE', ( #300, #303, #342, #302 ) ) ;
#292 = EDGE_LOOP ( 'NONE', ( #381, #284, #279, #242 ) ) ;
#293 = EDGE_LOOP ( 'NONE', ( #295, #294 ) ) ;
#294 = ORIENTED_EDGE ( 'NONE', *, *, #208, .F. ) ;
#295 = ORIENTED_EDGE ( 'NONE', *, *, #205, .F. ) ;
#296 = EDGE_LOOP ( 'NONE', ( #305, #286 ) ) ;
#297 = EDGE_LOOP ( 'NONE', ( #311, #314, #327, #260 ) ) ;
#298 = EDGE_LOOP ( 'NONE', ( #315, #309, #308, #360 ) ) ;
#299 = EDGE_LOOP ( 'NONE', ( #278, #374, #312, #368 ) ) ;
#300 = ORIENTED_EDGE ( 'NONE', *, *, #170, .T. ) ;
#301 = ORIENTED_EDGE ( 'NONE', *, *, #219, .T. ) ;
#302 = ORIENTED_EDGE ( 'NONE', *, *, #212, .F. ) ;
#303 = ORIENTED_EDGE ( 'NONE', *, *, #174, .T. ) ;
#304 = ORIENTED_EDGE ( 'NONE', *, *, #188, .F. ) ;
#305 = ORIENTED_EDGE ( 'NONE', *, *, #179, .F. ) ;
#306 = ORIENTED_EDGE ( 'NONE', *, *, #174, .F. ) ;
#307 = ORIENTED_EDGE ( 'NONE', *, *, #210, .T. ) ;
#308 = ORIENTED_EDGE ( 'NONE', *, *, #173, .T. ) ;
#309 = ORIENTED_EDGE ( 'NONE', *, *, #206, .F. ) ;
#310 = ORIENTED_EDGE ( 'NONE', *, *, #197, .T. ) ;
#311 = ORIENTED_EDGE ( 'NONE', *, *, #191, .F. ) ;
#312 = ORIENTED_EDGE ( 'NONE', *, *, #188, .T. ) ;
#313 = ORIENTED_EDGE ( 'NONE', *, *, #189, .F. ) ;
#314 = ORIENTED_EDGE ( 'NONE', *, *, #197, .F. ) ;
#315 = ORIENTED_EDGE ( 'NONE', *, *, #201, .T. ) ;
#316 = LINE ( 'NONE', #99, #339 ) ;
#317 = VECTOR ( 'NONE', #77, 39.37007874015748100 ) ;
#318 = LINE ( 'NONE', #101, #321 ) ;
#319 = CIRCLE ( 'NONE', #199, 0.08499999999999997800 ) ;
#320 = LINE ( 'NONE', #139, #334 ) ;
#321 = VECTOR ( 'NONE', #98, 39.37007874015748100 ) ;
#322 = VECTOR ( 'NONE', #87, 39.37007874015748100 ) ;
#323 = LINE ( 'NONE', #88, #326 ) ;
#324 = LINE ( 'NONE', #68, #333 ) ;
#325 = LINE ( 'NONE', #86, #322 ) ;
#326 = VECTOR ( 'NONE', #89, 39.37007874015748100 ) ;
#327 = ORIENTED_EDGE ( 'NONE', *, *, #200, .T. ) ;
#328 = ORIENTED_EDGE ( 'NONE', *, *, #209, .T. ) ;
#329 = ORIENTED_EDGE ( 'NONE', *, *, #186, .T. ) ;
#330 = ORIENTED_EDGE ( 'NONE', *, *, #170, .F. ) ;
#331 = LINE ( 'NONE', #104, #335 ) ;
#332 = VECTOR ( 'NONE', #156, 39.37007874015748100 ) ;
#333 = VECTOR ( 'NONE', #28, 39.37007874015748100 ) ;
#334 = VECTOR ( 'NONE', #135, 39.37007874015748100 ) ;
#335 = VECTOR ( 'NONE', #137, 39.37007874015748900 ) ;
#336 = LINE ( 'NONE', #155, #332 ) ;
#337 = EDGE_LOOP ( 'NONE', ( #382, #367, #379, #307 ) ) ;
#338 = VECTOR ( 'NONE', #123, 39.37007874015748100 ) ;
#339 = VECTOR ( 'NONE', #106, 39.37007874015748100 ) ;
#340 = LINE ( 'NONE', #148, #338 ) ;
#341 = ORIENTED_EDGE ( 'NONE', *, *, #179, .T. ) ;
#342 = ORIENTED_EDGE ( 'NONE', *, *, #208, .T. ) ;
#343 = ORIENTED_EDGE ( 'NONE', *, *, #212, .T. ) ;
#344 = ORIENTED_EDGE ( 'NONE', *, *, #189, .T. ) ;
#345 = LINE ( 'NONE', #7, #347 ) ;
#346 = VECTOR ( 'NONE', #11, 39.37007874015748100 ) ;
#347 = VECTOR ( 'NONE', #37, 39.37007874015748100 ) ;
#348 = LINE ( 'NONE', #22, #358 ) ;
#349 = LINE ( 'NONE', #126, #352 ) ;
#350 = VECTOR ( 'NONE', #5, 39.37007874015748100 ) ;
#351 = LINE ( 'NONE', #38, #346 ) ;
#352 = VECTOR ( 'NONE', #128, 39.37007874015748100 ) ;
#353 = LINE ( 'NONE', #8, #350 ) ;
#354 = CYLINDRICAL_SURFACE ( 'NONE', #223, 0.08499999999999997800 ) ;
#355 = CYLINDRICAL_SURFACE ( 'NONE', #183, 0.08499999999999997800 ) ;
#356 = FACE_OUTER_BOUND ( 'NONE', #289, .T. ) ;
#357 = LINE ( 'NONE', #25, #365 ) ;
#358 = VECTOR ( 'NONE', #21, 39.37007874015748100 ) ;
#359 = CIRCLE ( 'NONE', #181, 0.08499999999999997800 ) ;
#360 = ORIENTED_EDGE ( 'NONE', *, *, #191, .T. ) ;
#361 = ORIENTED_EDGE ( 'NONE', *, *, #210, .F. ) ;
#362 = LINE ( 'NONE', #45, #317 ) ;
#363 = CIRCLE ( 'NONE', #222, 0.08499999999999997800 ) ;
#364 = CIRCLE ( 'NONE', #182, 0.08499999999999997800 ) ;
#365 = VECTOR ( 'NONE', #54, 39.37007874015748100 ) ;
#366 = FACE_BOUND ( 'NONE', #249, .T. ) ;
#367 = ORIENTED_EDGE ( 'NONE', *, *, #201, .F. ) ;
#368 = ORIENTED_EDGE ( 'NONE', *, *, #194, .T. ) ;
#369 = CLOSED_SHELL ( 'NONE', ( #165, #162, #166, #167, #164, #163, #160, #159, #158, #157 ) ) ;
#370 = FACE_OUTER_BOUND ( 'NONE', #292, .T. ) ;
#371 = FACE_OUTER_BOUND ( 'NONE', #252, .T. ) ;
#372 = ORIENTED_EDGE ( 'NONE', *, *, #205, .T. ) ;
#373 = ORIENTED_EDGE ( 'NONE', *, *, #219, .F. ) ;
#374 = ORIENTED_EDGE ( 'NONE', *, *, #172, .T. ) ;
#375 = FACE_OUTER_BOUND ( 'NONE', #299, .T. ) ;
#376 = ORIENTED_EDGE ( 'NONE', *, *, #173, .F. ) ;
#377 = CYLINDRICAL_SURFACE ( 'NONE', #178, 0.08499999999999997800 ) ;
#378 = FACE_OUTER_BOUND ( 'NONE', #291, .T. ) ;
#379 = ORIENTED_EDGE ( 'NONE', *, *, #207, .F. ) ;
#380 = FACE_BOUND ( 'NONE', #296, .T. ) ;
#381 = ORIENTED_EDGE ( 'NONE', *, *, #220, .T. ) ;
#382 = ORIENTED_EDGE ( 'NONE', *, *, #184, .F. ) ;
#383 = FACE_OUTER_BOUND ( 'NONE', #337, .T. ) ;
#384 = CYLINDRICAL_SURFACE ( 'NONE', #196, 0.08499999999999997800 ) ;
#385 = ORIENTED_EDGE ( 'NONE', *, *, #175, .F. ) ;
#386 = FACE_BOUND ( 'NONE', #293, .T. ) ;
#387 = ORIENTED_EDGE ( 'NONE', *, *, #200, .F. ) ;
#388 = FACE_OUTER_BOUND ( 'NONE', #297, .T. ) ;
ENDSEC;
END-ISO-10303-21;
