ISO-10303-21;
HEADER;
FILE_DESCRIPTION (( 'STEP AP203' ),
    '1' );
FILE_NAME ('D020335-v2_aLIGO_SUS_HSTS_Lower Blade Clamp, Lower Side, Angled 1.5.STEP',
    '2010-06-24T17:41:35',
    ( 'Dwayne Giardina' ),
    ( 'CA Institute of Technology' ),
    'SwSTEP 2.0',
    'SolidWorks 2009',
    '' );
FILE_SCHEMA (( 'CONFIG_CONTROL_DESIGN' ));
ENDSEC;

DATA;
#1 = DIRECTION ( 'NONE',  ( 0.0000000000000000000, 0.0000000000000000000, -1.000000000000000000 ) ) ;
#2 = CARTESIAN_POINT ( 'NONE',  ( 0.0000000000000000000, 0.0000000000000000000, -0.3937007900000000200 ) ) ;
#3 = DIRECTION ( 'NONE',  ( -1.000000000000000000, 0.0000000000000000000, -0.0000000000000000000 ) ) ;
#4 = APPLICATION_CONTEXT ( 'configuration controlled 3d designs of mechanical parts and assemblies' ) ;
#5 =( NAMED_UNIT ( * ) SI_UNIT ( $, .STERADIAN. ) SOLID_ANGLE_UNIT ( ) );
#6 = APPLICATION_PROTOCOL_DEFINITION ( 'international standard', 'config_control_design', 1994, #4 ) ;
#7 =( LENGTH_UNIT ( ) NAMED_UNIT ( * ) SI_UNIT ( $, .METRE. ) );
#8 = CARTESIAN_POINT ( 'NONE',  ( -0.3543307086614173000, 2.073152488754191300E-020, -0.3937007900000000200 ) ) ;
#9 =( NAMED_UNIT ( * ) PLANE_ANGLE_UNIT ( ) SI_UNIT ( $, .RADIAN. ) );
#10 =( CONVERSION_BASED_UNIT ( 'INCH', #193 ) LENGTH_UNIT ( ) NAMED_UNIT ( #385 ) );
#11 = CARTESIAN_POINT ( 'NONE',  ( -0.3543307086614173000, 2.073152488754191300E-020, 0.0000000000000000000 ) ) ;
#12 = APPROVAL_ROLE ( '' ) ;
#13 = APPROVAL_STATUS ( 'not_yet_approved' ) ;
#14 = PERSON_AND_ORGANIZATION_ROLE ( 'creator' ) ;
#15 = PERSON_AND_ORGANIZATION_ROLE ( 'design_supplier' ) ;
#16 = APPLICATION_PROTOCOL_DEFINITION ( 'international standard', 'config_control_design', 1994, #17 ) ;
#17 = APPLICATION_CONTEXT ( 'configuration controlled 3d designs of mechanical parts and assemblies' ) ;
#18 = DATE_TIME_ROLE ( 'creation_date' ) ;
#19 = PERSON_AND_ORGANIZATION_ROLE ( 'creator' ) ;
#20 = PLANE ( 'NONE',  #358 ) ;
#21 = MECHANICAL_CONTEXT ( 'NONE', #17, 'mechanical' ) ;
#22 = PERSON_AND_ORGANIZATION_ROLE ( 'design_owner' ) ;
#23 = SECURITY_CLASSIFICATION_LEVEL ( 'unclassified' ) ;
#24 = CARTESIAN_POINT ( 'NONE',  ( 0.0000000000000000000, 0.0000000000000000000, 0.0000000000000000000 ) ) ;
#25 = DIRECTION ( 'NONE',  ( 0.0000000000000000000, 0.0000000000000000000, 1.000000000000000000 ) ) ;
#26 = PERSON_AND_ORGANIZATION_ROLE ( 'classification_officer' ) ;
#27 = DIRECTION ( 'NONE',  ( 1.000000000000000000, 0.0000000000000000000, 0.0000000000000000000 ) ) ;
#28 = APPROVAL_STATUS ( 'not_yet_approved' ) ;
#29 = APPROVAL_ROLE ( '' ) ;
#30 = DATE_TIME_ROLE ( 'classification_date' ) ;
#31 = APPROVAL_STATUS ( 'not_yet_approved' ) ;
#32 = PLANE ( 'NONE',  #322 ) ;
#33 = DIRECTION ( 'NONE',  ( -1.000000000000000000, 0.0000000000000000000, -0.0000000000000000000 ) ) ;
#34 = DIRECTION ( 'NONE',  ( 0.0000000000000000000, 0.0000000000000000000, -1.000000000000000000 ) ) ;
#35 = CARTESIAN_POINT ( 'NONE',  ( 0.3543307086614173000, 0.1970000000000000100, -0.3937007900000000200 ) ) ;
#36 = DIRECTION ( 'NONE',  ( -0.0000000000000000000, 0.0000000000000000000, -1.000000000000000000 ) ) ;
#37 = DIRECTION ( 'NONE',  ( 1.224606353822377500E-016, -1.000000000000000000, 0.0000000000000000000 ) ) ;
#38 = PLANE ( 'NONE',  #334 ) ;
#39 = DIRECTION ( 'NONE',  ( 1.000000000000000000, 1.224606353822377500E-016, 0.0000000000000000000 ) ) ;
#40 = DIRECTION ( 'NONE',  ( -0.0000000000000000000, 1.000000000000000000, -0.0000000000000000000 ) ) ;
#41 = DIRECTION ( 'NONE',  ( 1.000000000000000000, 0.0000000000000000000, -0.0000000000000000000 ) ) ;
#42 = DIRECTION ( 'NONE',  ( 0.0000000000000000000, 0.0000000000000000000, 1.000000000000000000 ) ) ;
#43 = APPROVAL_ROLE ( '' ) ;
#44 = PLANE ( 'NONE',  #333 ) ;
#45 = DESIGN_CONTEXT ( 'detailed design', #4, 'design' ) ;
#46 =( BOUNDED_CURVE ( )  B_SPLINE_CURVE ( 3, ( #122, #130, #53, #104 ),
 .UNSPECIFIED., .F., .F. ) 
 B_SPLINE_CURVE_WITH_KNOTS ( ( 4, 4 ),
 ( 3.141592653589793100, 6.283185307179586200 ),
 .UNSPECIFIED. ) 
 CURVE ( )  GEOMETRIC_REPRESENTATION_ITEM ( )  RATIONAL_B_SPLINE_CURVE ( ( 1.000000000000000000, 0.3333333333333333700, 0.3333333333333333700, 1.000000000000000000 ) ) 
 REPRESENTATION_ITEM ( '' )  );
#47 =( BOUNDED_CURVE ( )  B_SPLINE_CURVE ( 3, ( #55, #146, #145, #69 ),
 .UNSPECIFIED., .F., .T. ) 
 B_SPLINE_CURVE_WITH_KNOTS ( ( 4, 4 ),
 ( 0.0000000000000000000, 3.141592653589793100 ),
 .UNSPECIFIED. ) 
 CURVE ( )  GEOMETRIC_REPRESENTATION_ITEM ( )  RATIONAL_B_SPLINE_CURVE ( ( 1.000000000000000000, 0.3333333333333333700, 0.3333333333333333700, 1.000000000000000000 ) ) 
 REPRESENTATION_ITEM ( '' )  );
#48 =( BOUNDED_CURVE ( )  B_SPLINE_CURVE ( 3, ( #73, #86, #88, #127 ),
 .UNSPECIFIED., .F., .F. ) 
 B_SPLINE_CURVE_WITH_KNOTS ( ( 4, 4 ),
 ( 0.0000000000000000000, 3.141592653589793100 ),
 .UNSPECIFIED. ) 
 CURVE ( )  GEOMETRIC_REPRESENTATION_ITEM ( )  RATIONAL_B_SPLINE_CURVE ( ( 1.000000000000000000, 0.3333333333333333700, 0.3333333333333333700, 1.000000000000000000 ) ) 
 REPRESENTATION_ITEM ( '' )  );
#49 =( BOUNDED_CURVE ( )  B_SPLINE_CURVE ( 3, ( #71, #67, #62, #77 ),
 .UNSPECIFIED., .F., .F. ) 
 B_SPLINE_CURVE_WITH_KNOTS ( ( 4, 4 ),
 ( 3.141592653589793100, 6.283185307179586200 ),
 .UNSPECIFIED. ) 
 CURVE ( )  GEOMETRIC_REPRESENTATION_ITEM ( )  RATIONAL_B_SPLINE_CURVE ( ( 1.000000000000000000, 0.3333333333333333700, 0.3333333333333333700, 1.000000000000000000 ) ) 
 REPRESENTATION_ITEM ( '' )  );
#50 = PRODUCT_DEFINITION_SHAPE ( 'NONE', 'NONE',  #324 ) ;
#51 = CARTESIAN_POINT ( 'NONE',  ( -0.3543307086614173000, -4.339156371811573000E-017, 0.0000000000000000000 ) ) ;
#52 = DIRECTION ( 'NONE',  ( -0.0000000000000000000, 0.02617694830786635600, -0.9996573249755573700 ) ) ;
#53 = CARTESIAN_POINT ( 'NONE',  ( -0.02700000000000011400, 0.1940710943290481800, -0.2818503949999999800 ) ) ;
#54 = PLANE ( 'NONE',  #372 ) ;
#55 = CARTESIAN_POINT ( 'NONE',  ( 0.1969999999999999800, 0.1940710943290480900, -0.2818503949999999800 ) ) ;
#56 = DIRECTION ( 'NONE',  ( -0.0000000000000000000, 1.000000000000000000, -0.0000000000000000000 ) ) ;
#57 = CARTESIAN_POINT ( 'NONE',  ( -0.1970000000000000400, -0.8029999999999998300, -0.2818503949999999800 ) ) ;
#58 = CARTESIAN_POINT ( 'NONE',  ( -0.3543307086614173000, 0.1970000000000000400, -0.3937007900000000200 ) ) ;
#59 = CARTESIAN_POINT ( 'NONE',  ( -0.3543307086614173000, 0.1866905819913357900, 0.0000000000000000000 ) ) ;
#60 = CARTESIAN_POINT ( 'NONE',  ( 0.1969999999999999800, 0.0000000000000000000, -0.1118503950000000500 ) ) ;
#61 = DIRECTION ( 'NONE',  ( -0.0000000000000000000, 1.000000000000000000, -0.0000000000000000000 ) ) ;
#62 = CARTESIAN_POINT ( 'NONE',  ( 0.3669999999999999400, 0.1940710943290481800, -0.2818503949999999800 ) ) ;
#63 = CARTESIAN_POINT ( 'NONE',  ( 0.1969999999999999800, 0.1896194876622874800, -0.1118503950000000500 ) ) ;
#64 = DIRECTION ( 'NONE',  ( 1.000000000000000000, 1.224606353822377500E-016, 0.0000000000000000000 ) ) ;
#65 = DIRECTION ( 'NONE',  ( 1.224606353822377500E-016, -1.000000000000000000, 0.0000000000000000000 ) ) ;
#66 = CARTESIAN_POINT ( 'NONE',  ( -0.1970000000000000400, 0.0000000000000000000, -0.1968503949999999800 ) ) ;
#67 = CARTESIAN_POINT ( 'NONE',  ( 0.3669999999999999400, 0.1896194876622875900, -0.1118503950000000200 ) ) ;
#68 = DIRECTION ( 'NONE',  ( 1.000000000000000000, 1.224606353822377300E-016, -0.0000000000000000000 ) ) ;
#69 = CARTESIAN_POINT ( 'NONE',  ( 0.1969999999999999800, 0.1896194876622874800, -0.1118503950000000500 ) ) ;
#70 = CARTESIAN_POINT ( 'NONE',  ( -0.1970000000000000400, 0.0000000000000000000, -0.1118503950000000100 ) ) ;
#71 = CARTESIAN_POINT ( 'NONE',  ( 0.1969999999999999800, 0.1896194876622874800, -0.1118503950000000500 ) ) ;
#72 = CARTESIAN_POINT ( 'NONE',  ( -0.3543307086614173000, -4.339156371811573000E-017, -0.3937007900000000200 ) ) ;
#73 = CARTESIAN_POINT ( 'NONE',  ( -0.1970000000000000400, 0.1940710943290480900, -0.2818503949999999800 ) ) ;
#74 = CARTESIAN_POINT ( 'NONE',  ( -0.3543307086614173000, -4.339156371811573000E-017, -0.3937007900000000200 ) ) ;
#75 = VERTEX_POINT ( 'NONE', #97 ) ;
#76 = VERTEX_POINT ( 'NONE', #105 ) ;
#77 = CARTESIAN_POINT ( 'NONE',  ( 0.1969999999999999800, 0.1940710943290480900, -0.2818503949999999800 ) ) ;
#78 = DIRECTION ( 'NONE',  ( 0.0000000000000000000, 0.0000000000000000000, 1.000000000000000000 ) ) ;
#79 = DIRECTION ( 'NONE',  ( 1.224606353822377500E-016, -1.000000000000000000, 0.0000000000000000000 ) ) ;
#80 = CARTESIAN_POINT ( 'NONE',  ( 0.3543307086614173000, -2.073152488754191300E-020, -0.3937007900000000200 ) ) ;
#81 = CARTESIAN_POINT ( 'NONE',  ( 0.1969999999999999800, -0.8029999999999998300, -0.1968503950000000100 ) ) ;
#82 = DIRECTION ( 'NONE',  ( 0.0000000000000000000, 0.0000000000000000000, 1.000000000000000000 ) ) ;
#83 = CARTESIAN_POINT ( 'NONE',  ( 0.1969999999999999800, -0.8029999999999998300, -0.1968503950000000100 ) ) ;
#84 = DIRECTION ( 'NONE',  ( -0.0000000000000000000, 1.000000000000000000, -0.0000000000000000000 ) ) ;
#85 = CARTESIAN_POINT ( 'NONE',  ( 0.3543307086614173000, -2.073152488754191300E-020, -0.3937007900000000200 ) ) ;
#86 = CARTESIAN_POINT ( 'NONE',  ( -0.3669999999999999400, 0.1940710943290481800, -0.2818503949999999800 ) ) ;
#87 = CARTESIAN_POINT ( 'NONE',  ( 0.3543307086614173000, 0.1970000000000000100, 0.0000000000000000000 ) ) ;
#88 = CARTESIAN_POINT ( 'NONE',  ( -0.3669999999999999400, 0.1896194876622875900, -0.1118503950000000200 ) ) ;
#89 = CARTESIAN_POINT ( 'NONE',  ( -0.3543307086614173000, -4.339156371811573000E-017, -0.3937007900000000200 ) ) ;
#90 = VERTEX_POINT ( 'NONE', #106 ) ;
#91 = DIRECTION ( 'NONE',  ( -0.0000000000000000000, 1.000000000000000000, -0.0000000000000000000 ) ) ;
#92 = DIRECTION ( 'NONE',  ( 0.0000000000000000000, 0.0000000000000000000, 1.000000000000000000 ) ) ;
#93 = CARTESIAN_POINT ( 'NONE',  ( 0.1969999999999999800, -0.8029999999999998300, -0.1118503950000000500 ) ) ;
#94 = CARTESIAN_POINT ( 'NONE',  ( -0.3543307086614173000, -4.339156371811573000E-017, -0.3937007900000000200 ) ) ;
#95 = PLANE ( 'NONE',  #371 ) ;
#96 = CARTESIAN_POINT ( 'NONE',  ( 0.3543307086614173000, 0.1866905819913357600, 0.0000000000000000000 ) ) ;
#97 = CARTESIAN_POINT ( 'NONE',  ( 0.3543307086614173000, 0.1970000000000000100, -0.3937007900000000200 ) ) ;
#98 = VERTEX_POINT ( 'NONE', #110 ) ;
#99 = VERTEX_POINT ( 'NONE', #111 ) ;
#100 = DIRECTION ( 'NONE',  ( 1.000000000000000000, -0.0000000000000000000, -0.0000000000000000000 ) ) ;
#101 = VERTEX_POINT ( 'NONE', #103 ) ;
#102 = DIRECTION ( 'NONE',  ( -0.0000000000000000000, -1.000000000000000000, -0.0000000000000000000 ) ) ;
#103 = CARTESIAN_POINT ( 'NONE',  ( -0.1970000000000000400, 0.0000000000000000000, -0.2818503949999999800 ) ) ;
#104 = CARTESIAN_POINT ( 'NONE',  ( -0.1970000000000000400, 0.1940710943290480900, -0.2818503949999999800 ) ) ;
#105 = CARTESIAN_POINT ( 'NONE',  ( 0.1969999999999999800, 0.1940710943290480900, -0.2818503949999999800 ) ) ;
#106 = CARTESIAN_POINT ( 'NONE',  ( 0.3543307086614173000, -2.073152488754191300E-020, -0.3937007900000000200 ) ) ;
#107 = DIRECTION ( 'NONE',  ( 0.0000000000000000000, 0.02617694830786635600, -0.9996573249755573700 ) ) ;
#108 = DIRECTION ( 'NONE',  ( 1.000000000000000000, -5.850897023817385100E-020, -0.0000000000000000000 ) ) ;
#109 = CARTESIAN_POINT ( 'NONE',  ( -0.1970000000000000400, 0.0000000000000000000, -0.1968503949999999800 ) ) ;
#110 = CARTESIAN_POINT ( 'NONE',  ( -0.1970000000000000400, 0.1896194876622874800, -0.1118503950000000100 ) ) ;
#111 = CARTESIAN_POINT ( 'NONE',  ( -0.1970000000000000400, 0.1940710943290480900, -0.2818503949999999800 ) ) ;
#112 = CARTESIAN_POINT ( 'NONE',  ( -0.3543307086614173000, 0.1970000000000000100, -0.3937007900000000200 ) ) ;
#113 = DIRECTION ( 'NONE',  ( 0.0000000000000000000, -0.9996573249755574800, -0.02617694830786635900 ) ) ;
#114 = CARTESIAN_POINT ( 'NONE',  ( -0.1970000000000000400, -0.8029999999999998300, -0.1968503949999999800 ) ) ;
#115 = VERTEX_POINT ( 'NONE', #137 ) ;
#116 = DIRECTION ( 'NONE',  ( 0.0000000000000000000, 0.0000000000000000000, 1.000000000000000000 ) ) ;
#117 = CARTESIAN_POINT ( 'NONE',  ( -0.3543307086614173000, -4.339156371811573000E-017, 0.0000000000000000000 ) ) ;
#118 = DIRECTION ( 'NONE',  ( 0.0000000000000000000, -0.02617694830786635600, 0.9996573249755573700 ) ) ;
#119 = CARTESIAN_POINT ( 'NONE',  ( -0.1970000000000000400, -0.8029999999999998300, -0.1118503950000000100 ) ) ;
#120 = DIRECTION ( 'NONE',  ( 1.000000000000000000, 1.224606353822377500E-016, 0.0000000000000000000 ) ) ;
#121 = DIRECTION ( 'NONE',  ( 0.0000000000000000000, 0.0000000000000000000, 1.000000000000000000 ) ) ;
#122 = CARTESIAN_POINT ( 'NONE',  ( -0.1970000000000000400, 0.1896194876622874800, -0.1118503950000000100 ) ) ;
#123 = DIRECTION ( 'NONE',  ( -0.0000000000000000000, 1.000000000000000000, -0.0000000000000000000 ) ) ;
#124 = DIRECTION ( 'NONE',  ( -0.0000000000000000000, 1.000000000000000000, -0.0000000000000000000 ) ) ;
#125 = DIRECTION ( 'NONE',  ( -1.000000000000000000, 4.818676322157797600E-017, -0.0000000000000000000 ) ) ;
#126 = CARTESIAN_POINT ( 'NONE',  ( 0.1969999999999999800, -0.8029999999999998300, -0.2818503949999999800 ) ) ;
#127 = CARTESIAN_POINT ( 'NONE',  ( -0.1970000000000000400, 0.1896194876622874800, -0.1118503950000000100 ) ) ;
#128 = CARTESIAN_POINT ( 'NONE',  ( -0.1970000000000000400, -0.8029999999999998300, -0.1968503949999999800 ) ) ;
#129 = DIRECTION ( 'NONE',  ( -1.000000000000000000, 0.0000000000000000000, 0.0000000000000000000 ) ) ;
#130 = CARTESIAN_POINT ( 'NONE',  ( -0.02700000000000011400, 0.1896194876622875900, -0.1118503949999999900 ) ) ;
#131 = DIRECTION ( 'NONE',  ( -0.0000000000000000000, 1.000000000000000000, -0.0000000000000000000 ) ) ;
#132 = VERTEX_POINT ( 'NONE', #133 ) ;
#133 = CARTESIAN_POINT ( 'NONE',  ( 0.3543307086614173000, -2.073152488754191300E-020, 0.0000000000000000000 ) ) ;
#134 = DIRECTION ( 'NONE',  ( -0.0000000000000000000, 1.000000000000000000, -0.0000000000000000000 ) ) ;
#135 = CARTESIAN_POINT ( 'NONE',  ( 0.1969999999999999800, 0.0000000000000000000, -0.1968503950000000100 ) ) ;
#136 = VERTEX_POINT ( 'NONE', #72 ) ;
#137 = CARTESIAN_POINT ( 'NONE',  ( 0.1969999999999999800, 0.0000000000000000000, -0.2818503949999999800 ) ) ;
#138 = VERTEX_POINT ( 'NONE', #60 ) ;
#139 = CARTESIAN_POINT ( 'NONE',  ( 0.3543307086614173000, 0.1970000000000000100, -0.3937007900000000200 ) ) ;
#140 = CARTESIAN_POINT ( 'NONE',  ( -0.3543307086614173000, 0.1968650091733256100, -0.3885456983100714600 ) ) ;
#141 = CARTESIAN_POINT ( 'NONE',  ( 0.1969999999999999800, 0.0000000000000000000, -0.1968503950000000100 ) ) ;
#142 = VERTEX_POINT ( 'NONE', #59 ) ;
#143 = CARTESIAN_POINT ( 'NONE',  ( -0.6656692913385826600, 0.1970000000000000100, -0.3937007900000000200 ) ) ;
#144 = DIRECTION ( 'NONE',  ( 0.0000000000000000000, 0.0000000000000000000, 1.000000000000000000 ) ) ;
#145 = CARTESIAN_POINT ( 'NONE',  ( 0.02700000000000004800, 0.1896194876622875900, -0.1118503950000000600 ) ) ;
#146 = CARTESIAN_POINT ( 'NONE',  ( 0.02700000000000004800, 0.1940710943290481800, -0.2818503949999999800 ) ) ;
#147 = CARTESIAN_POINT ( 'NONE',  ( 0.3543307086614173000, 0.1970000000000000100, -0.3937007900000000200 ) ) ;
#148 = DIRECTION ( 'NONE',  ( -0.0000000000000000000, 1.000000000000000000, -0.0000000000000000000 ) ) ;
#149 = VERTEX_POINT ( 'NONE', #96 ) ;
#150 = DIRECTION ( 'NONE',  ( 1.000000000000000000, 1.224606353822377500E-016, 0.0000000000000000000 ) ) ;
#151 = DIRECTION ( 'NONE',  ( 1.224606353822377500E-016, -1.000000000000000000, 0.0000000000000000000 ) ) ;
#152 = CARTESIAN_POINT ( 'NONE',  ( 0.0000000000000000000, 0.0000000000000000000, 0.0000000000000000000 ) ) ;
#153 = DIRECTION ( 'NONE',  ( 1.224606353822377500E-016, -1.000000000000000000, 0.0000000000000000000 ) ) ;
#154 = VERTEX_POINT ( 'NONE', #63 ) ;
#155 = VERTEX_POINT ( 'NONE', #70 ) ;
#156 = CARTESIAN_POINT ( 'NONE',  ( -0.6656692913385826600, 0.1866905819913357600, 0.0000000000000000000 ) ) ;
#157 = DIRECTION ( 'NONE',  ( 1.000000000000000000, 1.224606353822377500E-016, 0.0000000000000000000 ) ) ;
#158 = VERTEX_POINT ( 'NONE', #117 ) ;
#159 = VERTEX_POINT ( 'NONE', #112 ) ;
#160 = DIRECTION ( 'NONE',  ( -0.0000000000000000000, -1.000000000000000000, -0.0000000000000000000 ) ) ;
#161 = ORIENTED_EDGE ( 'NONE', *, *, #361, .T. ) ;
#162 = ORIENTED_EDGE ( 'NONE', *, *, #330, .T. ) ;
#163 = ORIENTED_EDGE ( 'NONE', *, *, #363, .T. ) ;
#164 = ORIENTED_EDGE ( 'NONE', *, *, #359, .F. ) ;
#165 = VECTOR ( 'NONE', #124, 39.37007874015748100 ) ;
#166 = FACE_OUTER_BOUND ( 'NONE', #282, .T. ) ;
#167 = FACE_OUTER_BOUND ( 'NONE', #245, .T. ) ;
#168 = CYLINDRICAL_SURFACE ( 'NONE', #367, 0.08499999999999997800 ) ;
#169 = FACE_OUTER_BOUND ( 'NONE', #315, .T. ) ;
#170 = VECTOR ( 'NONE', #160, 39.37007874015748100 ) ;
#171 = LINE ( 'NONE', #119, #191 ) ;
#172 = LINE ( 'NONE', #80, #222 ) ;
#173 = FACE_OUTER_BOUND ( 'NONE', #313, .T. ) ;
#174 = FACE_BOUND ( 'NONE', #304, .T. ) ;
#175 = LINE ( 'NONE', #156, #214 ) ;
#176 = FACE_BOUND ( 'NONE', #228, .T. ) ;
#177 = FACE_BOUND ( 'NONE', #298, .T. ) ;
#178 = ORIENTED_EDGE ( 'NONE', *, *, #365, .T. ) ;
#179 = ORIENTED_EDGE ( 'NONE', *, *, #321, .F. ) ;
#180 = ORIENTED_EDGE ( 'NONE', *, *, #364, .T. ) ;
#181 = ORIENTED_EDGE ( 'NONE', *, *, #326, .F. ) ;
#182 = LINE ( 'NONE', #51, #170 ) ;
#183 = CIRCLE ( 'NONE', #319, 0.08499999999999997800 ) ;
#184 = ORIENTED_EDGE ( 'NONE', *, *, #354, .F. ) ;
#185 = VECTOR ( 'NONE', #91, 39.37007874015748100 ) ;
#186 = ORIENTED_EDGE ( 'NONE', *, *, #326, .T. ) ;
#187 = FACE_BOUND ( 'NONE', #276, .T. ) ;
#188 = FACE_OUTER_BOUND ( 'NONE', #251, .T. ) ;
#189 = FACE_OUTER_BOUND ( 'NONE', #274, .T. ) ;
#190 = FACE_OUTER_BOUND ( 'NONE', #252, .T. ) ;
#191 = VECTOR ( 'NONE', #84, 39.37007874015748100 ) ;
#192 = APPROVAL_DATE_TIME ( #258, #327 ) ;
#193 = LENGTH_MEASURE_WITH_UNIT ( LENGTH_MEASURE( 0.02539999999999999900 ), #7 );
#194 = LINE ( 'NONE', #89, #220 ) ;
#195 = ORIENTED_EDGE ( 'NONE', *, *, #343, .T. ) ;
#196 = LINE ( 'NONE', #87, #185 ) ;
#197 = LOCAL_TIME ( 12, 41, 35.00000000000000000, #291 ) ;
#198 = VECTOR ( 'NONE', #125, 39.37007874015748100 ) ;
#199 = EDGE_LOOP ( 'NONE', ( #195, #259, #241, #284 ) ) ;
#200 = PERSON_AND_ORGANIZATION ( #373, #302 ) ;
#201 = ORIENTED_EDGE ( 'NONE', *, *, #343, .F. ) ;
#202 = ORIENTED_EDGE ( 'NONE', *, *, #348, .F. ) ;
#203 = ORIENTED_EDGE ( 'NONE', *, *, #345, .T. ) ;
#204 = ORIENTED_EDGE ( 'NONE', *, *, #356, .F. ) ;
#205 = DATE_AND_TIME ( #223, #197 ) ;
#206 = DATE_AND_TIME ( #290, #279 ) ;
#207 = ORIENTED_EDGE ( 'NONE', *, *, #330, .F. ) ;
#208 = DATE_AND_TIME ( #211, #236 ) ;
#209 = CIRCLE ( 'NONE', #317, 0.08499999999999997800 ) ;
#210 = LINE ( 'NONE', #140, #225 ) ;
#211 = CALENDAR_DATE ( 2010, 24, 6 ) ;
#212 = COORDINATED_UNIVERSAL_TIME_OFFSET ( 6, 0, .BEHIND. ) ;
#213 = VECTOR ( 'NONE', #52, 39.37007874015748900 ) ;
#214 = VECTOR ( 'NONE', #100, 39.37007874015748100 ) ;
#215 = SECURITY_CLASSIFICATION ( '', '', #23 ) ;
#216 = ORIENTED_EDGE ( 'NONE', *, *, #349, .T. ) ;
#217 = VECTOR ( 'NONE', #61, 39.37007874015748100 ) ;
#218 = PERSON_AND_ORGANIZATION ( #373, #302 ) ;
#219 = APPROVAL_DATE_TIME ( #248, #335 ) ;
#220 = VECTOR ( 'NONE', #102, 39.37007874015748100 ) ;
#221 = CALENDAR_DATE ( 2010, 24, 6 ) ;
#222 = VECTOR ( 'NONE', #78, 39.37007874015748100 ) ;
#223 = CALENDAR_DATE ( 2010, 24, 6 ) ;
#224 = LINE ( 'NONE', #126, #217 ) ;
#225 = VECTOR ( 'NONE', #118, 39.37007874015748100 ) ;
#226 = ORIENTED_EDGE ( 'NONE', *, *, #318, .F. ) ;
#227 = ORIENTED_EDGE ( 'NONE', *, *, #342, .F. ) ;
#228 = EDGE_LOOP ( 'NONE', ( #202, #247 ) ) ;
#229 = VECTOR ( 'NONE', #68, 39.37007874015748100 ) ;
#230 = ORIENTED_EDGE ( 'NONE', *, *, #344, .T. ) ;
#231 = ORIENTED_EDGE ( 'NONE', *, *, #346, .T. ) ;
#232 = CYLINDRICAL_SURFACE ( 'NONE', #370, 0.08499999999999997800 ) ;
#233 = ORIENTED_EDGE ( 'NONE', *, *, #347, .T. ) ;
#234 = COORDINATED_UNIVERSAL_TIME_OFFSET ( 6, 0, .BEHIND. ) ;
#235 = PERSON_AND_ORGANIZATION ( #373, #302 ) ;
#236 = LOCAL_TIME ( 12, 41, 35.00000000000000000, #212 ) ;
#237 = APPROVAL_PERSON_ORGANIZATION ( #308, #327, #12 ) ;
#238 = ORIENTED_EDGE ( 'NONE', *, *, #357, .F. ) ;
#239 = ORIENTED_EDGE ( 'NONE', *, *, #363, .F. ) ;
#240 = CLOSED_SHELL ( 'NONE', ( #376, #378, #383, #375, #382, #381, #384, #380, #377, #379 ) ) ;
#241 = ORIENTED_EDGE ( 'NONE', *, *, #320, .T. ) ;
#242 = LOCAL_TIME ( 12, 41, 35.00000000000000000, #303 ) ;
#243 = CALENDAR_DATE ( 2010, 24, 6 ) ;
#244 = ORIENTED_EDGE ( 'NONE', *, *, #340, .T. ) ;
#245 = EDGE_LOOP ( 'NONE', ( #283, #226, #181, #287 ) ) ;
#246 = PERSON_AND_ORGANIZATION ( #373, #302 ) ;
#247 = ORIENTED_EDGE ( 'NONE', *, *, #344, .F. ) ;
#248 = DATE_AND_TIME ( #221, #242 ) ;
#249 = PERSON_AND_ORGANIZATION ( #373, #302 ) ;
#250 = EDGE_LOOP ( 'NONE', ( #257, #294, #254, #203 ) ) ;
#251 = EDGE_LOOP ( 'NONE', ( #207, #163, #270, #255 ) ) ;
#252 = EDGE_LOOP ( 'NONE', ( #231, #180, #233, #186 ) ) ;
#253 = EDGE_LOOP ( 'NONE', ( #179, #299, #161, #314 ) ) ;
#254 = ORIENTED_EDGE ( 'NONE', *, *, #342, .T. ) ;
#255 = ORIENTED_EDGE ( 'NONE', *, *, #348, .T. ) ;
#256 = ORIENTED_EDGE ( 'NONE', *, *, #355, .T. ) ;
#257 = ORIENTED_EDGE ( 'NONE', *, *, #357, .T. ) ;
#258 = DATE_AND_TIME ( #243, #300 ) ;
#259 = ORIENTED_EDGE ( 'NONE', *, *, #321, .T. ) ;
#260 = LINE ( 'NONE', #85, #267 ) ;
#261 = FACE_OUTER_BOUND ( 'NONE', #250, .T. ) ;
#262 = SHAPE_DEFINITION_REPRESENTATION ( #50, #387 ) ;
#263 = APPROVAL_DATE_TIME ( #208, #331 ) ;
#264 = APPROVAL_PERSON_ORGANIZATION ( #218, #331, #43 ) ;
#265 = CIRCLE ( 'NONE', #368, 0.08499999999999997800 ) ;
#266 = CYLINDRICAL_SURFACE ( 'NONE', #366, 0.08499999999999997800 ) ;
#267 = VECTOR ( 'NONE', #108, 39.37007874015748100 ) ;
#268 = VECTOR ( 'NONE', #92, 39.37007874015748100 ) ;
#269 = LINE ( 'NONE', #74, #268 ) ;
#270 = ORIENTED_EDGE ( 'NONE', *, *, #360, .T. ) ;
#271 = VECTOR ( 'NONE', #148, 39.37007874015748100 ) ;
#272 = LINE ( 'NONE', #147, #271 ) ;
#273 = LINE ( 'NONE', #152, #229 ) ;
#274 = EDGE_LOOP ( 'NONE', ( #281, #238, #311, #216 ) ) ;
#275 = APPROVAL_PERSON_ORGANIZATION ( #285, #335, #29 ) ;
#276 = EDGE_LOOP ( 'NONE', ( #201, #204 ) ) ;
#277 = COORDINATED_UNIVERSAL_TIME_OFFSET ( 6, 0, .BEHIND. ) ;
#278 = LINE ( 'NONE', #139, #213 ) ;
#279 = LOCAL_TIME ( 12, 41, 35.00000000000000000, #234 ) ;
#280 = ORIENTED_EDGE ( 'NONE', *, *, #365, .F. ) ;
#281 = ORIENTED_EDGE ( 'NONE', *, *, #347, .F. ) ;
#282 = EDGE_LOOP ( 'NONE', ( #307, #184, #256, #244 ) ) ;
#283 = ORIENTED_EDGE ( 'NONE', *, *, #355, .F. ) ;
#284 = ORIENTED_EDGE ( 'NONE', *, *, #361, .F. ) ;
#285 = PERSON_AND_ORGANIZATION ( #373, #302 ) ;
#286 = ORIENTED_EDGE ( 'NONE', *, *, #318, .T. ) ;
#287 = ORIENTED_EDGE ( 'NONE', *, *, #349, .F. ) ;
#288 = VECTOR ( 'NONE', #131, 39.37007874015748100 ) ;
#289 = LINE ( 'NONE', #58, #198 ) ;
#290 = CALENDAR_DATE ( 2010, 24, 6 ) ;
#291 = COORDINATED_UNIVERSAL_TIME_OFFSET ( 6, 0, .BEHIND. ) ;
#292 = LINE ( 'NONE', #93, #288 ) ;
#293 = CYLINDRICAL_SURFACE ( 'NONE', #369, 0.08499999999999997800 ) ;
#294 = ORIENTED_EDGE ( 'NONE', *, *, #364, .F. ) ;
#295 =( GEOMETRIC_REPRESENTATION_CONTEXT ( 3 ) GLOBAL_UNCERTAINTY_ASSIGNED_CONTEXT ( ( #386 ) ) GLOBAL_UNIT_ASSIGNED_CONTEXT ( ( #10, #9, #5 ) ) REPRESENTATION_CONTEXT ( 'NONE', 'WORKASPACE' ) );
#296 = ORIENTED_EDGE ( 'NONE', *, *, #354, .T. ) ;
#297 = LINE ( 'NONE', #57, #165 ) ;
#298 = EDGE_LOOP ( 'NONE', ( #164, #316 ) ) ;
#299 = ORIENTED_EDGE ( 'NONE', *, *, #356, .T. ) ;
#300 = LOCAL_TIME ( 12, 41, 35.00000000000000000, #277 ) ;
#301 = FACE_OUTER_BOUND ( 'NONE', #253, .T. ) ;
#302 = ORGANIZATION ( 'UNSPECIFIED', 'UNSPECIFIED', '' ) ;
#303 = COORDINATED_UNIVERSAL_TIME_OFFSET ( 6, 0, .BEHIND. ) ;
#304 = EDGE_LOOP ( 'NONE', ( #280, #239 ) ) ;
#305 = ORIENTED_EDGE ( 'NONE', *, *, #346, .F. ) ;
#306 = PERSON_AND_ORGANIZATION ( #373, #302 ) ;
#307 = ORIENTED_EDGE ( 'NONE', *, *, #345, .F. ) ;
#308 = PERSON_AND_ORGANIZATION ( #373, #302 ) ;
#309 = FACE_OUTER_BOUND ( 'NONE', #199, .T. ) ;
#310 = CIRCLE ( 'NONE', #341, 0.08499999999999997800 ) ;
#311 = ORIENTED_EDGE ( 'NONE', *, *, #340, .F. ) ;
#312 = ORIENTED_EDGE ( 'NONE', *, *, #360, .F. ) ;
#313 = EDGE_LOOP ( 'NONE', ( #178, #162, #230, #312 ) ) ;
#314 = ORIENTED_EDGE ( 'NONE', *, *, #359, .T. ) ;
#315 = EDGE_LOOP ( 'NONE', ( #305, #286, #296, #227 ) ) ;
#316 = ORIENTED_EDGE ( 'NONE', *, *, #320, .F. ) ;
#317 = AXIS2_PLACEMENT_3D ( 'NONE', #66, #65, #64 ) ;
#318 = EDGE_CURVE ( 'NONE', #159, #136, #194, .T. ) ;
#319 = AXIS2_PLACEMENT_3D ( 'NONE', #135, #151, #150 ) ;
#320 = EDGE_CURVE ( 'NONE', #99, #98, #48, .T. ) ;
#321 = EDGE_CURVE ( 'NONE', #101, #99, #297, .T. ) ;
#322 = AXIS2_PLACEMENT_3D ( 'NONE', #8, #34, #33 ) ;
#323 = AXIS2_PLACEMENT_3D ( 'NONE', #24, #25, #27 ) ;
#324 = PRODUCT_DEFINITION ( 'UNKNOWN', '', #362, #45 ) ;
#325 = CC_DESIGN_PERSON_AND_ORGANIZATION_ASSIGNMENT ( #200, #22, ( #374 ) ) ;
#326 = EDGE_CURVE ( 'NONE', #75, #159, #289, .T. ) ;
#327 = APPROVAL ( #13, 'UNSPECIFIED' ) ;
#328 = CC_DESIGN_DATE_AND_TIME_ASSIGNMENT ( #205, #30, ( #215 ) ) ;
#329 = CC_DESIGN_APPROVAL ( #327, ( #324 ) ) ;
#330 = EDGE_CURVE ( 'NONE', #115, #76, #224, .T. ) ;
#331 = APPROVAL ( #31, 'UNSPECIFIED' ) ;
#332 = CC_DESIGN_APPROVAL ( #331, ( #215 ) ) ;
#333 = AXIS2_PLACEMENT_3D ( 'NONE', #2, #37, #39 ) ;
#334 = AXIS2_PLACEMENT_3D ( 'NONE', #35, #41, #36 ) ;
#335 = APPROVAL ( #28, 'UNSPECIFIED' ) ;
#336 = CC_DESIGN_PERSON_AND_ORGANIZATION_ASSIGNMENT ( #246, #15, ( #362 ) ) ;
#337 = CC_DESIGN_SECURITY_CLASSIFICATION ( #215, ( #362 ) ) ;
#338 = PRODUCT_RELATED_PRODUCT_CATEGORY ( 'detail', '', ( #374 ) ) ;
#339 = CC_DESIGN_PERSON_AND_ORGANIZATION_ASSIGNMENT ( #235, #14, ( #362 ) ) ;
#340 = EDGE_CURVE ( 'NONE', #90, #132, #172, .T. ) ;
#341 = AXIS2_PLACEMENT_3D ( 'NONE', #109, #79, #120 ) ;
#342 = EDGE_CURVE ( 'NONE', #142, #158, #182, .T. ) ;
#343 = EDGE_CURVE ( 'NONE', #155, #101, #209, .T. ) ;
#344 = EDGE_CURVE ( 'NONE', #76, #154, #47, .T. ) ;
#345 = EDGE_CURVE ( 'NONE', #158, #132, #273, .T. ) ;
#346 = EDGE_CURVE ( 'NONE', #159, #142, #210, .T. ) ;
#347 = EDGE_CURVE ( 'NONE', #149, #75, #278, .T. ) ;
#348 = EDGE_CURVE ( 'NONE', #154, #76, #49, .T. ) ;
#349 = EDGE_CURVE ( 'NONE', #90, #75, #272, .T. ) ;
#350 = CC_DESIGN_PERSON_AND_ORGANIZATION_ASSIGNMENT ( #306, #19, ( #324 ) ) ;
#351 = CC_DESIGN_APPROVAL ( #335, ( #362 ) ) ;
#352 = CC_DESIGN_PERSON_AND_ORGANIZATION_ASSIGNMENT ( #249, #26, ( #215 ) ) ;
#353 = CC_DESIGN_DATE_AND_TIME_ASSIGNMENT ( #206, #18, ( #324 ) ) ;
#354 = EDGE_CURVE ( 'NONE', #136, #158, #269, .T. ) ;
#355 = EDGE_CURVE ( 'NONE', #136, #90, #260, .T. ) ;
#356 = EDGE_CURVE ( 'NONE', #101, #155, #310, .T. ) ;
#357 = EDGE_CURVE ( 'NONE', #132, #149, #196, .T. ) ;
#358 = AXIS2_PLACEMENT_3D ( 'NONE', #11, #1, #3 ) ;
#359 = EDGE_CURVE ( 'NONE', #98, #99, #46, .T. ) ;
#360 = EDGE_CURVE ( 'NONE', #138, #154, #292, .T. ) ;
#361 = EDGE_CURVE ( 'NONE', #155, #98, #171, .T. ) ;
#362 = PRODUCT_DEFINITION_FORMATION_WITH_SPECIFIED_SOURCE ( 'ANY', '', #374, .NOT_KNOWN. ) ;
#363 = EDGE_CURVE ( 'NONE', #115, #138, #183, .T. ) ;
#364 = EDGE_CURVE ( 'NONE', #142, #149, #175, .T. ) ;
#365 = EDGE_CURVE ( 'NONE', #138, #115, #265, .T. ) ;
#366 = AXIS2_PLACEMENT_3D ( 'NONE', #114, #40, #42 ) ;
#367 = AXIS2_PLACEMENT_3D ( 'NONE', #83, #123, #82 ) ;
#368 = AXIS2_PLACEMENT_3D ( 'NONE', #141, #153, #157 ) ;
#369 = AXIS2_PLACEMENT_3D ( 'NONE', #128, #134, #144 ) ;
#370 = AXIS2_PLACEMENT_3D ( 'NONE', #81, #56, #116 ) ;
#371 = AXIS2_PLACEMENT_3D ( 'NONE', #94, #129, #121 ) ;
#372 = AXIS2_PLACEMENT_3D ( 'NONE', #143, #113, #107 ) ;
#373 = PERSON ( 'UNSPECIFIED', 'UNSPECIFIED', 'UNSPECIFIED', ('UNSPECIFIED'), ('UNSPECIFIED'), ('UNSPECIFIED') ) ;
#374 = PRODUCT ( 'D020335-v2_aLIGO_SUS_HSTS_Lower Blade Clamp, Lower Side, Angled 1.5', 'D020335-v2_aLIGO_SUS_HSTS_Lower Blade Clamp, Lower Side, Angled 1.5', '', ( #21 ) ) ;
#375 = ADVANCED_FACE ( 'NONE', ( #169 ), #95, .T. ) ;
#376 = ADVANCED_FACE ( 'NONE', ( #173 ), #168, .F. ) ;
#377 = ADVANCED_FACE ( 'NONE', ( #188 ), #232, .F. ) ;
#378 = ADVANCED_FACE ( 'NONE', ( #309 ), #293, .F. ) ;
#379 = ADVANCED_FACE ( 'NONE', ( #190, #176, #177 ), #54, .F. ) ;
#380 = ADVANCED_FACE ( 'NONE', ( #301 ), #266, .F. ) ;
#381 = ADVANCED_FACE ( 'NONE', ( #167 ), #32, .T. ) ;
#382 = ADVANCED_FACE ( 'NONE', ( #189 ), #38, .T. ) ;
#383 = ADVANCED_FACE ( 'NONE', ( #174, #187, #166 ), #44, .T. ) ;
#384 = ADVANCED_FACE ( 'NONE', ( #261 ), #20, .F. ) ;
#385 = DIMENSIONAL_EXPONENTS ( 1.000000000000000000, 0.0000000000000000000, 0.0000000000000000000, 0.0000000000000000000, 0.0000000000000000000, 0.0000000000000000000, 0.0000000000000000000 ) ;
#386 = UNCERTAINTY_MEASURE_WITH_UNIT (LENGTH_MEASURE( 1.000000000000000100E-005 ), #10, 'distance_accuracy_value', 'NONE');
#387 = ADVANCED_BREP_SHAPE_REPRESENTATION ( 'D020335-v2_aLIGO_SUS_HSTS_Lower Blade Clamp, Lower Side, Angled 1.5', ( #388, #323 ), #295 ) ;
#388 = MANIFOLD_SOLID_BREP ( 'NONE', #240 ) ;
ENDSEC;
END-ISO-10303-21;
