ISO-10303-21;
HEADER;
FILE_DESCRIPTION (( 'STEP AP203' ),
    '1' );
FILE_NAME ('D020336-v2_aLIGO_SUS_HSTS_Lower Blade Clamp, Lower Side, Angled 2.5.STEP',
    '2010-06-25T15:05:06',
    ( 'Dwayne Giardina' ),
    ( 'CA Institute of Technology' ),
    'SwSTEP 2.0',
    'SolidWorks 2009',
    '' );
FILE_SCHEMA (( 'CONFIG_CONTROL_DESIGN' ));
ENDSEC;

DATA;
#1 = CARTESIAN_POINT ( 'NONE',  ( 0.3543307086614173000, 0.1798106522847766300, 0.0000000000000000000 ) ) ;
#2 = SECURITY_CLASSIFICATION_LEVEL ( 'unclassified' ) ;
#3 = CARTESIAN_POINT ( 'NONE',  ( 0.1969999999999999800, 0.1846941459951654800, -0.1118503950000000500 ) ) ;
#4 = CARTESIAN_POINT ( 'NONE',  ( -0.1970000000000000400, 0.1921165062896113000, -0.2818503949999999800 ) ) ;
#5 = APPROVAL_ROLE ( '' ) ;
#6 = APPLICATION_PROTOCOL_DEFINITION ( 'international standard', 'config_control_design', 1994, #8 ) ;
#7 = PERSON_AND_ORGANIZATION_ROLE ( 'classification_officer' ) ;
#8 = APPLICATION_CONTEXT ( 'configuration controlled 3d designs of mechanical parts and assemblies' ) ;
#9 = DIRECTION ( 'NONE',  ( 1.000000000000000000, 1.224606353822377300E-016, -0.0000000000000000000 ) ) ;
#10 = APPROVAL_STATUS ( 'not_yet_approved' ) ;
#11 = CARTESIAN_POINT ( 'NONE',  ( -0.1970000000000000400, 0.1921165062896113000, -0.2818503949999999800 ) ) ;
#12 = APPROVAL_ROLE ( '' ) ;
#13 = DATE_TIME_ROLE ( 'classification_date' ) ;
#14 = DIRECTION ( 'NONE',  ( -0.0000000000000000000, 0.04361938736532908200, -0.9990482215818581300 ) ) ;
#15 = CARTESIAN_POINT ( 'NONE',  ( 0.3543307086614173000, 0.1970000000000000100, -0.3937007900000000200 ) ) ;
#16 = DIRECTION ( 'NONE',  ( 0.0000000000000000000, 0.0000000000000000000, 1.000000000000000000 ) ) ;
#17 = CARTESIAN_POINT ( 'NONE',  ( -0.3543307086614173000, -4.339156371811573000E-017, -0.3937007900000000200 ) ) ;
#18 = CARTESIAN_POINT ( 'NONE',  ( 0.1969999999999999800, 0.0000000000000000000, -0.1118503950000000500 ) ) ;
#19 = CARTESIAN_POINT ( 'NONE',  ( 0.3543307086614173000, 0.1970000000000000100, -0.3937007900000000200 ) ) ;
#20 = CARTESIAN_POINT ( 'NONE',  ( 0.3543307086614173000, -2.073152488754191300E-020, 0.0000000000000000000 ) ) ;
#21 =( NAMED_UNIT ( * ) PLANE_ANGLE_UNIT ( ) SI_UNIT ( $, .RADIAN. ) );
#22 = DIRECTION ( 'NONE',  ( 0.0000000000000000000, 0.0000000000000000000, 1.000000000000000000 ) ) ;
#23 = CARTESIAN_POINT ( 'NONE',  ( 0.3543307086614173000, -2.073152488754191300E-020, -0.3937007900000000200 ) ) ;
#24 =( LENGTH_UNIT ( ) NAMED_UNIT ( * ) SI_UNIT ( $, .METRE. ) );
#25 = CARTESIAN_POINT ( 'NONE',  ( -0.1970000000000000400, 0.1846941459951654800, -0.1118503950000000100 ) ) ;
#26 = CARTESIAN_POINT ( 'NONE',  ( -0.3543307086614173000, -4.339156371811573000E-017, 0.0000000000000000000 ) ) ;
#27 = CARTESIAN_POINT ( 'NONE',  ( 0.0000000000000000000, 0.0000000000000000000, 0.0000000000000000000 ) ) ;
#28 = APPLICATION_PROTOCOL_DEFINITION ( 'international standard', 'config_control_design', 1994, #50 ) ;
#29 = CARTESIAN_POINT ( 'NONE',  ( -0.1970000000000000400, 0.1846941459951654800, -0.1118503950000000100 ) ) ;
#30 = CARTESIAN_POINT ( 'NONE',  ( -0.1970000000000000400, 0.1846941459951654800, -0.1118503950000000100 ) ) ;
#31 = APPROVAL_ROLE ( '' ) ;
#32 = CARTESIAN_POINT ( 'NONE',  ( -0.02700000000000011400, 0.1921165062896112700, -0.2818503949999999800 ) ) ;
#33 = CARTESIAN_POINT ( 'NONE',  ( -0.3543307086614173000, -4.339156371811573000E-017, -0.3937007900000000200 ) ) ;
#34 =( NAMED_UNIT ( * ) SI_UNIT ( $, .STERADIAN. ) SOLID_ANGLE_UNIT ( ) );
#35 = CARTESIAN_POINT ( 'NONE',  ( -0.3543307086614173000, -4.339156371811573000E-017, -0.3937007900000000200 ) ) ;
#36 = CARTESIAN_POINT ( 'NONE',  ( -0.3543307086614173000, 0.1970000000000000100, -0.3937007900000000200 ) ) ;
#37 = CARTESIAN_POINT ( 'NONE',  ( -0.3543307086614173000, 0.1798106522847766300, 0.0000000000000000000 ) ) ;
#38 = DIRECTION ( 'NONE',  ( -0.0000000000000000000, 1.000000000000000000, -0.0000000000000000000 ) ) ;
#39 = MECHANICAL_CONTEXT ( 'NONE', #8, 'mechanical' ) ;
#40 = CARTESIAN_POINT ( 'NONE',  ( -0.1970000000000000400, 0.0000000000000000000, -0.2818503949999999800 ) ) ;
#41 = APPROVAL_STATUS ( 'not_yet_approved' ) ;
#42 = CARTESIAN_POINT ( 'NONE',  ( 0.3543307086614173000, 0.1970000000000000100, -0.3937007900000000200 ) ) ;
#43 = CARTESIAN_POINT ( 'NONE',  ( -0.02700000000000011400, 0.1846941459951654800, -0.1118503949999999900 ) ) ;
#44 = CARTESIAN_POINT ( 'NONE',  ( -0.1970000000000000400, 0.1921165062896113000, -0.2818503949999999800 ) ) ;
#45 = CARTESIAN_POINT ( 'NONE',  ( -0.3669999999999999400, 0.1921165062896112700, -0.2818503949999999800 ) ) ;
#46 = CARTESIAN_POINT ( 'NONE',  ( -0.3669999999999999400, 0.1846941459951654800, -0.1118503950000000200 ) ) ;
#47 = CARTESIAN_POINT ( 'NONE',  ( 0.1969999999999999800, 0.1921165062896113000, -0.2818503949999999800 ) ) ;
#48 = CARTESIAN_POINT ( 'NONE',  ( -0.1970000000000000400, 0.0000000000000000000, -0.1118503950000000100 ) ) ;
#49 =( CONVERSION_BASED_UNIT ( 'INCH', #163 ) LENGTH_UNIT ( ) NAMED_UNIT ( #130 ) );
#50 = APPLICATION_CONTEXT ( 'configuration controlled 3d designs of mechanical parts and assemblies' ) ;
#51 = PERSON_AND_ORGANIZATION_ROLE ( 'creator' ) ;
#52 = DIRECTION ( 'NONE',  ( 1.000000000000000000, 0.0000000000000000000, 0.0000000000000000000 ) ) ;
#53 = CARTESIAN_POINT ( 'NONE',  ( 0.0000000000000000000, 0.0000000000000000000, 0.0000000000000000000 ) ) ;
#54 = PERSON_AND_ORGANIZATION_ROLE ( 'design_owner' ) ;
#55 = PERSON_AND_ORGANIZATION_ROLE ( 'creator' ) ;
#56 = DIRECTION ( 'NONE',  ( -0.0000000000000000000, -1.000000000000000000, -0.0000000000000000000 ) ) ;
#57 = CARTESIAN_POINT ( 'NONE',  ( 0.1969999999999999800, 0.0000000000000000000, -0.2818503949999999800 ) ) ;
#58 = APPROVAL_STATUS ( 'not_yet_approved' ) ;
#59 = PERSON_AND_ORGANIZATION_ROLE ( 'design_supplier' ) ;
#60 = DATE_TIME_ROLE ( 'creation_date' ) ;
#61 = ADVANCED_FACE ( 'NONE', ( #200 ), #329, .F. ) ;
#62 = ADVANCED_FACE ( 'NONE', ( #286 ), #343, .T. ) ;
#63 = ADVANCED_FACE ( 'NONE', ( #274 ), #384, .T. ) ;
#64 = ADVANCED_FACE ( 'NONE', ( #278 ), #301, .T. ) ;
#65 = ADVANCED_FACE ( 'NONE', ( #144 ), #271, .F. ) ;
#66 = ADVANCED_FACE ( 'NONE', ( #287, #230, #289 ), #322, .F. ) ;
#67 = ADVANCED_FACE ( 'NONE', ( #239 ), #173, .F. ) ;
#68 = ADVANCED_FACE ( 'NONE', ( #199 ), #159, .F. ) ;
#69 = ADVANCED_FACE ( 'NONE', ( #227, #217, #255 ), #347, .T. ) ;
#70 = MANIFOLD_SOLID_BREP ( 'NONE', #203 ) ;
#71 = ADVANCED_FACE ( 'NONE', ( #273 ), #213, .F. ) ;
#72 = ADVANCED_BREP_SHAPE_REPRESENTATION ( 'D020336-v2_aLIGO_SUS_HSTS_Lower Blade Clamp, Lower Side, Angled 2.5', ( #70, #128 ), #153 ) ;
#73 = UNCERTAINTY_MEASURE_WITH_UNIT (LENGTH_MEASURE( 1.000000000000000100E-005 ), #49, 'distance_accuracy_value', 'NONE');
#74 = EDGE_CURVE ( 'NONE', #297, #337, #238, .T. ) ;
#75 = CC_DESIGN_APPROVAL ( #79, ( #210 ) ) ;
#76 = CC_DESIGN_PERSON_AND_ORGANIZATION_ASSIGNMENT ( #223, #55, ( #96 ) ) ;
#77 = AXIS2_PLACEMENT_3D ( 'NONE', #307, #299, #298 ) ;
#78 = EDGE_CURVE ( 'NONE', #388, #354, #262, .T. ) ;
#79 = APPROVAL ( #10, 'UNSPECIFIED' ) ;
#80 = CC_DESIGN_APPROVAL ( #86, ( #96 ) ) ;
#81 = AXIS2_PLACEMENT_3D ( 'NONE', #369, #352, #373 ) ;
#82 = EDGE_CURVE ( 'NONE', #295, #325, #265, .T. ) ;
#83 = EDGE_CURVE ( 'NONE', #365, #302, #133, .T. ) ;
#84 = AXIS2_PLACEMENT_3D ( 'NONE', #364, #382, #332 ) ;
#85 = AXIS2_PLACEMENT_3D ( 'NONE', #339, #385, #374 ) ;
#86 = APPROVAL ( #58, 'UNSPECIFIED' ) ;
#87 = EDGE_CURVE ( 'NONE', #375, #372, #242, .T. ) ;
#88 = EDGE_CURVE ( 'NONE', #337, #341, #225, .T. ) ;
#89 = AXIS2_PLACEMENT_3D ( 'NONE', #351, #355, #317 ) ;
#90 = AXIS2_PLACEMENT_3D ( 'NONE', #370, #305, #379 ) ;
#91 = EDGE_CURVE ( 'NONE', #388, #377, #251, .T. ) ;
#92 = CC_DESIGN_DATE_AND_TIME_ASSIGNMENT ( #166, #13, ( #210 ) ) ;
#93 = EDGE_CURVE ( 'NONE', #377, #388, #215, .T. ) ;
#94 = AXIS2_PLACEMENT_3D ( 'NONE', #366, #348, #335 ) ;
#95 = EDGE_CURVE ( 'NONE', #326, #378, #156, .T. ) ;
#96 = PRODUCT_DEFINITION_FORMATION_WITH_SPECIFIED_SOURCE ( 'ANY', '', #138, .NOT_KNOWN. ) ;
#97 = CC_DESIGN_PERSON_AND_ORGANIZATION_ASSIGNMENT ( #253, #51, ( #110 ) ) ;
#98 = EDGE_CURVE ( 'NONE', #302, #365, #135, .T. ) ;
#99 = AXIS2_PLACEMENT_3D ( 'NONE', #323, #318, #381 ) ;
#100 = EDGE_CURVE ( 'NONE', #378, #295, #170, .T. ) ;
#101 = EDGE_CURVE ( 'NONE', #341, #325, #240, .T. ) ;
#102 = EDGE_CURVE ( 'NONE', #372, #302, #149, .T. ) ;
#103 = CC_DESIGN_SECURITY_CLASSIFICATION ( #210, ( #96 ) ) ;
#104 = EDGE_CURVE ( 'NONE', #377, #356, #228, .T. ) ;
#105 = CC_DESIGN_PERSON_AND_ORGANIZATION_ASSIGNMENT ( #268, #7, ( #210 ) ) ;
#106 = AXIS2_PLACEMENT_3D ( 'NONE', #359, #296, #358 ) ;
#107 = EDGE_CURVE ( 'NONE', #375, #365, #232, .T. ) ;
#108 = EDGE_CURVE ( 'NONE', #372, #375, #188, .T. ) ;
#109 = CC_DESIGN_APPROVAL ( #126, ( #110 ) ) ;
#110 = PRODUCT_DEFINITION ( 'UNKNOWN', '', #96, #134 ) ;
#111 = AXIS2_PLACEMENT_3D ( 'NONE', #357, #330, #338 ) ;
#112 = AXIS2_PLACEMENT_3D ( 'NONE', #340, #350, #321 ) ;
#113 = PRODUCT_RELATED_PRODUCT_CATEGORY ( 'detail', '', ( #138 ) ) ;
#114 = EDGE_CURVE ( 'NONE', #295, #306, #272, .T. ) ;
#115 = AXIS2_PLACEMENT_3D ( 'NONE', #361, #376, #360 ) ;
#116 = EDGE_CURVE ( 'NONE', #378, #297, #248, .T. ) ;
#117 = CC_DESIGN_DATE_AND_TIME_ASSIGNMENT ( #208, #60, ( #110 ) ) ;
#118 = EDGE_CURVE ( 'NONE', #337, #326, #260, .T. ) ;
#119 = EDGE_CURVE ( 'NONE', #297, #306, #206, .T. ) ;
#120 = CC_DESIGN_PERSON_AND_ORGANIZATION_ASSIGNMENT ( #293, #54, ( #138 ) ) ;
#121 = EDGE_CURVE ( 'NONE', #354, #356, #136, .T. ) ;
#122 = EDGE_CURVE ( 'NONE', #306, #341, #290, .T. ) ;
#123 = EDGE_CURVE ( 'NONE', #325, #326, #187, .T. ) ;
#124 = EDGE_CURVE ( 'NONE', #356, #354, #131, .T. ) ;
#125 = AXIS2_PLACEMENT_3D ( 'NONE', #304, #311, #349 ) ;
#126 = APPROVAL ( #41, 'UNSPECIFIED' ) ;
#127 = CC_DESIGN_PERSON_AND_ORGANIZATION_ASSIGNMENT ( #292, #59, ( #96 ) ) ;
#128 = AXIS2_PLACEMENT_3D ( 'NONE', #27, #22, #52 ) ;
#129 = AXIS2_PLACEMENT_3D ( 'NONE', #308, #353, #342 ) ;
#130 = DIMENSIONAL_EXPONENTS ( 1.000000000000000000, 0.0000000000000000000, 0.0000000000000000000, 0.0000000000000000000, 0.0000000000000000000, 0.0000000000000000000, 0.0000000000000000000 ) ;
#131 =( BOUNDED_CURVE ( )  B_SPLINE_CURVE ( 3, ( #44, #45, #46, #25 ),
 .UNSPECIFIED., .F., .T. ) 
 B_SPLINE_CURVE_WITH_KNOTS ( ( 4, 4 ),
 ( 0.0000000000000000000, 3.141592653589793100 ),
 .UNSPECIFIED. ) 
 CURVE ( )  GEOMETRIC_REPRESENTATION_ITEM ( )  RATIONAL_B_SPLINE_CURVE ( ( 1.000000000000000000, 0.3333333333333333700, 0.3333333333333333700, 1.000000000000000000 ) ) 
 REPRESENTATION_ITEM ( '' )  );
#132 = PRODUCT_DEFINITION_SHAPE ( 'NONE', 'NONE',  #110 ) ;
#133 =( BOUNDED_CURVE ( )  B_SPLINE_CURVE ( 3, ( #386, #324, #334, #320 ),
 .UNSPECIFIED., .F., .T. ) 
 B_SPLINE_CURVE_WITH_KNOTS ( ( 4, 4 ),
 ( 0.0000000000000000000, 3.141592653589793100 ),
 .UNSPECIFIED. ) 
 CURVE ( )  GEOMETRIC_REPRESENTATION_ITEM ( )  RATIONAL_B_SPLINE_CURVE ( ( 1.000000000000000000, 0.3333333333333333700, 0.3333333333333333700, 1.000000000000000000 ) ) 
 REPRESENTATION_ITEM ( '' )  );
#134 = DESIGN_CONTEXT ( 'detailed design', #50, 'design' ) ;
#135 =( BOUNDED_CURVE ( )  B_SPLINE_CURVE ( 3, ( #310, #312, #319, #313 ),
 .UNSPECIFIED., .F., .T. ) 
 B_SPLINE_CURVE_WITH_KNOTS ( ( 4, 4 ),
 ( 3.141592653589793100, 6.283185307179586200 ),
 .UNSPECIFIED. ) 
 CURVE ( )  GEOMETRIC_REPRESENTATION_ITEM ( )  RATIONAL_B_SPLINE_CURVE ( ( 1.000000000000000000, 0.3333333333333333700, 0.3333333333333333700, 1.000000000000000000 ) ) 
 REPRESENTATION_ITEM ( '' )  );
#136 =( BOUNDED_CURVE ( )  B_SPLINE_CURVE ( 3, ( #30, #43, #32, #11 ),
 .UNSPECIFIED., .F., .T. ) 
 B_SPLINE_CURVE_WITH_KNOTS ( ( 4, 4 ),
 ( 3.141592653589793100, 6.283185307179586200 ),
 .UNSPECIFIED. ) 
 CURVE ( )  GEOMETRIC_REPRESENTATION_ITEM ( )  RATIONAL_B_SPLINE_CURVE ( ( 1.000000000000000000, 0.3333333333333333700, 0.3333333333333333700, 1.000000000000000000 ) ) 
 REPRESENTATION_ITEM ( '' )  );
#137 = PERSON ( 'UNSPECIFIED', 'UNSPECIFIED', 'UNSPECIFIED', ('UNSPECIFIED'), ('UNSPECIFIED'), ('UNSPECIFIED') ) ;
#138 = PRODUCT ( 'D020336-v2_aLIGO_SUS_HSTS_Lower Blade Clamp, Lower Side, Angled 2.5', 'D020336-v2_aLIGO_SUS_HSTS_Lower Blade Clamp, Lower Side, Angled 2.5', '', ( #39 ) ) ;
#139 = ORIENTED_EDGE ( 'NONE', *, *, #93, .T. ) ;
#140 = CALENDAR_DATE ( 2010, 25, 6 ) ;
#141 = ORIENTED_EDGE ( 'NONE', *, *, #122, .T. ) ;
#142 = VECTOR ( 'NONE', #309, 39.37007874015748100 ) ;
#143 = COORDINATED_UNIVERSAL_TIME_OFFSET ( 6, 0, .BEHIND. ) ;
#144 = FACE_OUTER_BOUND ( 'NONE', #171, .T. ) ;
#145 = ORIENTED_EDGE ( 'NONE', *, *, #78, .F. ) ;
#146 = ORIENTED_EDGE ( 'NONE', *, *, #95, .F. ) ;
#147 = VECTOR ( 'NONE', #387, 39.37007874015748100 ) ;
#148 = ORIENTED_EDGE ( 'NONE', *, *, #74, .T. ) ;
#149 = LINE ( 'NONE', #367, #190 ) ;
#150 = ORIENTED_EDGE ( 'NONE', *, *, #82, .F. ) ;
#151 = SHAPE_DEFINITION_REPRESENTATION ( #132, #72 ) ;
#152 = ORIENTED_EDGE ( 'NONE', *, *, #104, .F. ) ;
#153 =( GEOMETRIC_REPRESENTATION_CONTEXT ( 3 ) GLOBAL_UNCERTAINTY_ASSIGNED_CONTEXT ( ( #73 ) ) GLOBAL_UNIT_ASSIGNED_CONTEXT ( ( #49, #21, #34 ) ) REPRESENTATION_CONTEXT ( 'NONE', 'WORKASPACE' ) );
#154 = ORIENTED_EDGE ( 'NONE', *, *, #119, .T. ) ;
#155 = VECTOR ( 'NONE', #363, 39.37007874015748100 ) ;
#156 = LINE ( 'NONE', #333, #147 ) ;
#157 = VECTOR ( 'NONE', #316, 39.37007874015748100 ) ;
#158 = PERSON_AND_ORGANIZATION ( #137, #161 ) ;
#159 = CYLINDRICAL_SURFACE ( 'NONE', #111, 0.08499999999999997800 ) ;
#160 = ORIENTED_EDGE ( 'NONE', *, *, #101, .T. ) ;
#161 = ORGANIZATION ( 'UNSPECIFIED', 'UNSPECIFIED', '' ) ;
#162 = ORIENTED_EDGE ( 'NONE', *, *, #98, .T. ) ;
#163 = LENGTH_MEASURE_WITH_UNIT ( LENGTH_MEASURE( 0.02539999999999999900 ), #24 );
#164 = ORIENTED_EDGE ( 'NONE', *, *, #87, .F. ) ;
#165 = ORIENTED_EDGE ( 'NONE', *, *, #95, .T. ) ;
#166 = DATE_AND_TIME ( #179, #282 ) ;
#167 = ORIENTED_EDGE ( 'NONE', *, *, #102, .F. ) ;
#168 = VECTOR ( 'NONE', #314, 39.37007874015748100 ) ;
#169 = ORIENTED_EDGE ( 'NONE', *, *, #88, .T. ) ;
#170 = LINE ( 'NONE', #336, #198 ) ;
#171 = EDGE_LOOP ( 'NONE', ( #277, #284, #216, #162 ) ) ;
#172 = ORIENTED_EDGE ( 'NONE', *, *, #124, .T. ) ;
#173 = CYLINDRICAL_SURFACE ( 'NONE', #112, 0.08499999999999997800 ) ;
#174 = CALENDAR_DATE ( 2010, 25, 6 ) ;
#175 = APPROVAL_PERSON_ORGANIZATION ( #220, #79, #5 ) ;
#176 = DATE_AND_TIME ( #189, #185 ) ;
#177 = EDGE_LOOP ( 'NONE', ( #212, #233, #236, #165 ) ) ;
#178 = ORIENTED_EDGE ( 'NONE', *, *, #114, .T. ) ;
#179 = CALENDAR_DATE ( 2010, 25, 6 ) ;
#180 = ORIENTED_EDGE ( 'NONE', *, *, #93, .F. ) ;
#181 = EDGE_LOOP ( 'NONE', ( #244, #204, #146, #279 ) ) ;
#182 = VECTOR ( 'NONE', #9, 39.37007874015748100 ) ;
#183 = EDGE_LOOP ( 'NONE', ( #184, #186, #148, #169 ) ) ;
#184 = ORIENTED_EDGE ( 'NONE', *, *, #122, .F. ) ;
#185 = LOCAL_TIME ( 10, 5, 6.000000000000000000, #143 ) ;
#186 = ORIENTED_EDGE ( 'NONE', *, *, #119, .F. ) ;
#187 = LINE ( 'NONE', #15, #222 ) ;
#188 = CIRCLE ( 'NONE', #89, 0.08499999999999997800 ) ;
#189 = CALENDAR_DATE ( 2010, 25, 6 ) ;
#190 = VECTOR ( 'NONE', #331, 39.37007874015748100 ) ;
#191 = COORDINATED_UNIVERSAL_TIME_OFFSET ( 6, 0, .BEHIND. ) ;
#192 = VECTOR ( 'NONE', #300, 39.37007874015748100 ) ;
#193 = EDGE_LOOP ( 'NONE', ( #281, #267 ) ) ;
#194 = APPROVAL_DATE_TIME ( #176, #126 ) ;
#195 = APPROVAL_DATE_TIME ( #264, #79 ) ;
#196 = EDGE_LOOP ( 'NONE', ( #243, #269 ) ) ;
#197 = VECTOR ( 'NONE', #368, 39.37007874015748100 ) ;
#198 = VECTOR ( 'NONE', #345, 39.37007874015748100 ) ;
#199 = FACE_OUTER_BOUND ( 'NONE', #247, .T. ) ;
#200 = FACE_OUTER_BOUND ( 'NONE', #205, .T. ) ;
#201 = EDGE_LOOP ( 'NONE', ( #237, #164 ) ) ;
#202 = ORIENTED_EDGE ( 'NONE', *, *, #91, .T. ) ;
#203 = CLOSED_SHELL ( 'NONE', ( #71, #68, #69, #62, #63, #64, #61, #67, #65, #66 ) ) ;
#204 = ORIENTED_EDGE ( 'NONE', *, *, #116, .F. ) ;
#205 = EDGE_LOOP ( 'NONE', ( #160, #150, #178, #141 ) ) ;
#206 = LINE ( 'NONE', #17, #294 ) ;
#207 = ORIENTED_EDGE ( 'NONE', *, *, #88, .F. ) ;
#208 = DATE_AND_TIME ( #174, #280 ) ;
#209 = ORIENTED_EDGE ( 'NONE', *, *, #78, .T. ) ;
#210 = SECURITY_CLASSIFICATION ( '', '', #2 ) ;
#211 = ORIENTED_EDGE ( 'NONE', *, *, #116, .T. ) ;
#212 = ORIENTED_EDGE ( 'NONE', *, *, #100, .T. ) ;
#213 = CYLINDRICAL_SURFACE ( 'NONE', #85, 0.08499999999999997800 ) ;
#214 = VECTOR ( 'NONE', #38, 39.37007874015748100 ) ;
#215 = CIRCLE ( 'NONE', #94, 0.08499999999999997800 ) ;
#216 = ORIENTED_EDGE ( 'NONE', *, *, #102, .T. ) ;
#217 = FACE_BOUND ( 'NONE', #245, .T. ) ;
#218 = APPROVAL_PERSON_ORGANIZATION ( #158, #86, #31 ) ;
#219 = ORIENTED_EDGE ( 'NONE', *, *, #100, .F. ) ;
#220 = PERSON_AND_ORGANIZATION ( #137, #161 ) ;
#221 = APPROVAL_DATE_TIME ( #234, #86 ) ;
#222 = VECTOR ( 'NONE', #14, 39.37007874015748100 ) ;
#223 = PERSON_AND_ORGANIZATION ( #137, #161 ) ;
#224 = PERSON_AND_ORGANIZATION ( #137, #161 ) ;
#225 = LINE ( 'NONE', #362, #155 ) ;
#226 = LOCAL_TIME ( 10, 5, 6.000000000000000000, #191 ) ;
#227 = FACE_BOUND ( 'NONE', #201, .T. ) ;
#228 = LINE ( 'NONE', #315, #168 ) ;
#229 = EDGE_LOOP ( 'NONE', ( #283, #263, #207, #261 ) ) ;
#230 = FACE_BOUND ( 'NONE', #196, .T. ) ;
#231 = ORIENTED_EDGE ( 'NONE', *, *, #91, .F. ) ;
#232 = LINE ( 'NONE', #380, #157 ) ;
#233 = ORIENTED_EDGE ( 'NONE', *, *, #82, .T. ) ;
#234 = DATE_AND_TIME ( #140, #226 ) ;
#235 = COORDINATED_UNIVERSAL_TIME_OFFSET ( 6, 0, .BEHIND. ) ;
#236 = ORIENTED_EDGE ( 'NONE', *, *, #123, .T. ) ;
#237 = ORIENTED_EDGE ( 'NONE', *, *, #108, .F. ) ;
#238 = LINE ( 'NONE', #303, #192 ) ;
#239 = FACE_OUTER_BOUND ( 'NONE', #250, .T. ) ;
#240 = LINE ( 'NONE', #344, #197 ) ;
#241 = EDGE_LOOP ( 'NONE', ( #254, #285, #249, #167 ) ) ;
#242 = CIRCLE ( 'NONE', #81, 0.08499999999999997800 ) ;
#243 = ORIENTED_EDGE ( 'NONE', *, *, #98, .F. ) ;
#244 = ORIENTED_EDGE ( 'NONE', *, *, #74, .F. ) ;
#245 = EDGE_LOOP ( 'NONE', ( #231, #180 ) ) ;
#246 = COORDINATED_UNIVERSAL_TIME_OFFSET ( 6, 0, .BEHIND. ) ;
#247 = EDGE_LOOP ( 'NONE', ( #202, #256, #172, #145 ) ) ;
#248 = LINE ( 'NONE', #33, #257 ) ;
#249 = ORIENTED_EDGE ( 'NONE', *, *, #83, .T. ) ;
#250 = EDGE_LOOP ( 'NONE', ( #152, #139, #209, #258 ) ) ;
#251 = CIRCLE ( 'NONE', #115, 0.08499999999999997800 ) ;
#252 = ORIENTED_EDGE ( 'NONE', *, *, #114, .F. ) ;
#253 = PERSON_AND_ORGANIZATION ( #137, #161 ) ;
#254 = ORIENTED_EDGE ( 'NONE', *, *, #108, .T. ) ;
#255 = FACE_OUTER_BOUND ( 'NONE', #183, .T. ) ;
#256 = ORIENTED_EDGE ( 'NONE', *, *, #104, .T. ) ;
#257 = VECTOR ( 'NONE', #56, 39.37007874015748100 ) ;
#258 = ORIENTED_EDGE ( 'NONE', *, *, #121, .T. ) ;
#259 = VECTOR ( 'NONE', #328, 39.37007874015748100 ) ;
#260 = LINE ( 'NONE', #19, #214 ) ;
#261 = ORIENTED_EDGE ( 'NONE', *, *, #118, .T. ) ;
#262 = LINE ( 'NONE', #327, #142 ) ;
#263 = ORIENTED_EDGE ( 'NONE', *, *, #101, .F. ) ;
#264 = DATE_AND_TIME ( #270, #291 ) ;
#265 = LINE ( 'NONE', #371, #266 ) ;
#266 = VECTOR ( 'NONE', #346, 39.37007874015748100 ) ;
#267 = ORIENTED_EDGE ( 'NONE', *, *, #124, .F. ) ;
#268 = PERSON_AND_ORGANIZATION ( #137, #161 ) ;
#269 = ORIENTED_EDGE ( 'NONE', *, *, #83, .F. ) ;
#270 = CALENDAR_DATE ( 2010, 25, 6 ) ;
#271 = CYLINDRICAL_SURFACE ( 'NONE', #77, 0.08499999999999997800 ) ;
#272 = LINE ( 'NONE', #383, #259 ) ;
#273 = FACE_OUTER_BOUND ( 'NONE', #241, .T. ) ;
#274 = FACE_OUTER_BOUND ( 'NONE', #229, .T. ) ;
#275 = EDGE_LOOP ( 'NONE', ( #219, #211, #154, #252 ) ) ;
#276 = APPROVAL_PERSON_ORGANIZATION ( #224, #126, #12 ) ;
#277 = ORIENTED_EDGE ( 'NONE', *, *, #107, .F. ) ;
#278 = FACE_OUTER_BOUND ( 'NONE', #181, .T. ) ;
#279 = ORIENTED_EDGE ( 'NONE', *, *, #118, .F. ) ;
#280 = LOCAL_TIME ( 10, 5, 6.000000000000000000, #288 ) ;
#281 = ORIENTED_EDGE ( 'NONE', *, *, #121, .F. ) ;
#282 = LOCAL_TIME ( 10, 5, 6.000000000000000000, #246 ) ;
#283 = ORIENTED_EDGE ( 'NONE', *, *, #123, .F. ) ;
#284 = ORIENTED_EDGE ( 'NONE', *, *, #87, .T. ) ;
#285 = ORIENTED_EDGE ( 'NONE', *, *, #107, .T. ) ;
#286 = FACE_OUTER_BOUND ( 'NONE', #275, .T. ) ;
#287 = FACE_OUTER_BOUND ( 'NONE', #177, .T. ) ;
#288 = COORDINATED_UNIVERSAL_TIME_OFFSET ( 6, 0, .BEHIND. ) ;
#289 = FACE_BOUND ( 'NONE', #193, .T. ) ;
#290 = LINE ( 'NONE', #53, #182 ) ;
#291 = LOCAL_TIME ( 10, 5, 6.000000000000000000, #235 ) ;
#292 = PERSON_AND_ORGANIZATION ( #137, #161 ) ;
#293 = PERSON_AND_ORGANIZATION ( #137, #161 ) ;
#294 = VECTOR ( 'NONE', #16, 39.37007874015748100 ) ;
#295 = VERTEX_POINT ( 'NONE', #37 ) ;
#296 = DIRECTION ( 'NONE',  ( 0.0000000000000000000, 0.0000000000000000000, -1.000000000000000000 ) ) ;
#297 = VERTEX_POINT ( 'NONE', #35 ) ;
#298 = DIRECTION ( 'NONE',  ( 0.0000000000000000000, 0.0000000000000000000, 1.000000000000000000 ) ) ;
#299 = DIRECTION ( 'NONE',  ( -0.0000000000000000000, 1.000000000000000000, -0.0000000000000000000 ) ) ;
#300 = DIRECTION ( 'NONE',  ( 1.000000000000000000, -5.850897023817385100E-020, -0.0000000000000000000 ) ) ;
#301 = PLANE ( 'NONE',  #90 ) ;
#302 = VERTEX_POINT ( 'NONE', #3 ) ;
#303 = CARTESIAN_POINT ( 'NONE',  ( 0.3543307086614173000, -2.073152488754191300E-020, -0.3937007900000000200 ) ) ;
#304 = CARTESIAN_POINT ( 'NONE',  ( -0.3543307086614173000, -4.339156371811573000E-017, -0.3937007900000000200 ) ) ;
#305 = DIRECTION ( 'NONE',  ( 0.0000000000000000000, 0.0000000000000000000, -1.000000000000000000 ) ) ;
#306 = VERTEX_POINT ( 'NONE', #26 ) ;
#307 = CARTESIAN_POINT ( 'NONE',  ( 0.1969999999999999800, -0.8029999999999998300, -0.1968503950000000100 ) ) ;
#308 = CARTESIAN_POINT ( 'NONE',  ( 0.3543307086614173000, 0.1970000000000000100, -0.3937007900000000200 ) ) ;
#309 = DIRECTION ( 'NONE',  ( -0.0000000000000000000, 1.000000000000000000, -0.0000000000000000000 ) ) ;
#310 = CARTESIAN_POINT ( 'NONE',  ( 0.1969999999999999800, 0.1846941459951654800, -0.1118503950000000500 ) ) ;
#311 = DIRECTION ( 'NONE',  ( -1.000000000000000000, 0.0000000000000000000, 0.0000000000000000000 ) ) ;
#312 = CARTESIAN_POINT ( 'NONE',  ( 0.3669999999999999400, 0.1846941459951654800, -0.1118503950000000200 ) ) ;
#313 = CARTESIAN_POINT ( 'NONE',  ( 0.1969999999999999800, 0.1921165062896113000, -0.2818503949999999800 ) ) ;
#314 = DIRECTION ( 'NONE',  ( -0.0000000000000000000, 1.000000000000000000, -0.0000000000000000000 ) ) ;
#315 = CARTESIAN_POINT ( 'NONE',  ( -0.1970000000000000400, -0.8029999999999998300, -0.2818503949999999800 ) ) ;
#316 = DIRECTION ( 'NONE',  ( -0.0000000000000000000, 1.000000000000000000, -0.0000000000000000000 ) ) ;
#317 = DIRECTION ( 'NONE',  ( 1.000000000000000000, 1.224606353822377500E-016, 0.0000000000000000000 ) ) ;
#318 = DIRECTION ( 'NONE',  ( 0.0000000000000000000, -0.9990482215818581300, -0.04361938736532907500 ) ) ;
#319 = CARTESIAN_POINT ( 'NONE',  ( 0.3669999999999999400, 0.1921165062896112700, -0.2818503949999999800 ) ) ;
#320 = CARTESIAN_POINT ( 'NONE',  ( 0.1969999999999999800, 0.1846941459951654800, -0.1118503950000000500 ) ) ;
#321 = DIRECTION ( 'NONE',  ( 0.0000000000000000000, 0.0000000000000000000, 1.000000000000000000 ) ) ;
#322 = PLANE ( 'NONE',  #99 ) ;
#323 = CARTESIAN_POINT ( 'NONE',  ( -0.6656692913385826600, 0.1970000000000000100, -0.3937007900000000200 ) ) ;
#324 = CARTESIAN_POINT ( 'NONE',  ( 0.02700000000000004800, 0.1921165062896112700, -0.2818503949999999800 ) ) ;
#325 = VERTEX_POINT ( 'NONE', #1 ) ;
#326 = VERTEX_POINT ( 'NONE', #42 ) ;
#327 = CARTESIAN_POINT ( 'NONE',  ( -0.1970000000000000400, -0.8029999999999998300, -0.1118503950000000100 ) ) ;
#328 = DIRECTION ( 'NONE',  ( -0.0000000000000000000, -1.000000000000000000, -0.0000000000000000000 ) ) ;
#329 = PLANE ( 'NONE',  #106 ) ;
#330 = DIRECTION ( 'NONE',  ( -0.0000000000000000000, 1.000000000000000000, -0.0000000000000000000 ) ) ;
#331 = DIRECTION ( 'NONE',  ( -0.0000000000000000000, 1.000000000000000000, -0.0000000000000000000 ) ) ;
#332 = DIRECTION ( 'NONE',  ( 1.000000000000000000, 1.224606353822377500E-016, 0.0000000000000000000 ) ) ;
#333 = CARTESIAN_POINT ( 'NONE',  ( -0.3543307086614173000, 0.1970000000000000400, -0.3937007900000000200 ) ) ;
#334 = CARTESIAN_POINT ( 'NONE',  ( 0.02700000000000004800, 0.1846941459951654800, -0.1118503950000000600 ) ) ;
#335 = DIRECTION ( 'NONE',  ( 1.000000000000000000, 1.224606353822377500E-016, 0.0000000000000000000 ) ) ;
#336 = CARTESIAN_POINT ( 'NONE',  ( -0.3543307086614173000, 0.1966251777620370600, -0.3851159493393571100 ) ) ;
#337 = VERTEX_POINT ( 'NONE', #23 ) ;
#338 = DIRECTION ( 'NONE',  ( 0.0000000000000000000, 0.0000000000000000000, 1.000000000000000000 ) ) ;
#339 = CARTESIAN_POINT ( 'NONE',  ( 0.1969999999999999800, -0.8029999999999998300, -0.1968503950000000100 ) ) ;
#340 = CARTESIAN_POINT ( 'NONE',  ( -0.1970000000000000400, -0.8029999999999998300, -0.1968503949999999800 ) ) ;
#341 = VERTEX_POINT ( 'NONE', #20 ) ;
#342 = DIRECTION ( 'NONE',  ( -0.0000000000000000000, 0.0000000000000000000, -1.000000000000000000 ) ) ;
#343 = PLANE ( 'NONE',  #125 ) ;
#344 = CARTESIAN_POINT ( 'NONE',  ( 0.3543307086614173000, 0.1970000000000000100, 0.0000000000000000000 ) ) ;
#345 = DIRECTION ( 'NONE',  ( 0.0000000000000000000, -0.04361938736532907500, 0.9990482215818581300 ) ) ;
#346 = DIRECTION ( 'NONE',  ( 1.000000000000000000, -0.0000000000000000000, -0.0000000000000000000 ) ) ;
#347 = PLANE ( 'NONE',  #84 ) ;
#348 = DIRECTION ( 'NONE',  ( 1.224606353822377500E-016, -1.000000000000000000, 0.0000000000000000000 ) ) ;
#349 = DIRECTION ( 'NONE',  ( 0.0000000000000000000, 0.0000000000000000000, 1.000000000000000000 ) ) ;
#350 = DIRECTION ( 'NONE',  ( -0.0000000000000000000, 1.000000000000000000, -0.0000000000000000000 ) ) ;
#351 = CARTESIAN_POINT ( 'NONE',  ( 0.1969999999999999800, 0.0000000000000000000, -0.1968503950000000100 ) ) ;
#352 = DIRECTION ( 'NONE',  ( 1.224606353822377500E-016, -1.000000000000000000, 0.0000000000000000000 ) ) ;
#353 = DIRECTION ( 'NONE',  ( 1.000000000000000000, 0.0000000000000000000, -0.0000000000000000000 ) ) ;
#354 = VERTEX_POINT ( 'NONE', #29 ) ;
#355 = DIRECTION ( 'NONE',  ( 1.224606353822377500E-016, -1.000000000000000000, 0.0000000000000000000 ) ) ;
#356 = VERTEX_POINT ( 'NONE', #4 ) ;
#357 = CARTESIAN_POINT ( 'NONE',  ( -0.1970000000000000400, -0.8029999999999998300, -0.1968503949999999800 ) ) ;
#358 = DIRECTION ( 'NONE',  ( -1.000000000000000000, 0.0000000000000000000, -0.0000000000000000000 ) ) ;
#359 = CARTESIAN_POINT ( 'NONE',  ( -0.3543307086614173000, 2.073152488754191300E-020, 0.0000000000000000000 ) ) ;
#360 = DIRECTION ( 'NONE',  ( 1.000000000000000000, 1.224606353822377500E-016, 0.0000000000000000000 ) ) ;
#361 = CARTESIAN_POINT ( 'NONE',  ( -0.1970000000000000400, 0.0000000000000000000, -0.1968503949999999800 ) ) ;
#362 = CARTESIAN_POINT ( 'NONE',  ( 0.3543307086614173000, -2.073152488754191300E-020, -0.3937007900000000200 ) ) ;
#363 = DIRECTION ( 'NONE',  ( 0.0000000000000000000, 0.0000000000000000000, 1.000000000000000000 ) ) ;
#364 = CARTESIAN_POINT ( 'NONE',  ( 0.0000000000000000000, 0.0000000000000000000, -0.3937007900000000200 ) ) ;
#365 = VERTEX_POINT ( 'NONE', #47 ) ;
#366 = CARTESIAN_POINT ( 'NONE',  ( -0.1970000000000000400, 0.0000000000000000000, -0.1968503949999999800 ) ) ;
#367 = CARTESIAN_POINT ( 'NONE',  ( 0.1969999999999999800, -0.8029999999999998300, -0.1118503950000000500 ) ) ;
#368 = DIRECTION ( 'NONE',  ( -0.0000000000000000000, 1.000000000000000000, -0.0000000000000000000 ) ) ;
#369 = CARTESIAN_POINT ( 'NONE',  ( 0.1969999999999999800, 0.0000000000000000000, -0.1968503950000000100 ) ) ;
#370 = CARTESIAN_POINT ( 'NONE',  ( -0.3543307086614173000, 2.073152488754191300E-020, -0.3937007900000000200 ) ) ;
#371 = CARTESIAN_POINT ( 'NONE',  ( -0.6656692913385826600, 0.1798106522847766300, 0.0000000000000000000 ) ) ;
#372 = VERTEX_POINT ( 'NONE', #18 ) ;
#373 = DIRECTION ( 'NONE',  ( 1.000000000000000000, 1.224606353822377500E-016, 0.0000000000000000000 ) ) ;
#374 = DIRECTION ( 'NONE',  ( 0.0000000000000000000, 0.0000000000000000000, 1.000000000000000000 ) ) ;
#375 = VERTEX_POINT ( 'NONE', #57 ) ;
#376 = DIRECTION ( 'NONE',  ( 1.224606353822377500E-016, -1.000000000000000000, 0.0000000000000000000 ) ) ;
#377 = VERTEX_POINT ( 'NONE', #40 ) ;
#378 = VERTEX_POINT ( 'NONE', #36 ) ;
#379 = DIRECTION ( 'NONE',  ( -1.000000000000000000, 0.0000000000000000000, -0.0000000000000000000 ) ) ;
#380 = CARTESIAN_POINT ( 'NONE',  ( 0.1969999999999999800, -0.8029999999999998300, -0.2818503949999999800 ) ) ;
#381 = DIRECTION ( 'NONE',  ( 0.0000000000000000000, 0.04361938736532907500, -0.9990482215818581300 ) ) ;
#382 = DIRECTION ( 'NONE',  ( 1.224606353822377500E-016, -1.000000000000000000, 0.0000000000000000000 ) ) ;
#383 = CARTESIAN_POINT ( 'NONE',  ( -0.3543307086614173000, -4.339156371811573000E-017, 0.0000000000000000000 ) ) ;
#384 = PLANE ( 'NONE',  #129 ) ;
#385 = DIRECTION ( 'NONE',  ( -0.0000000000000000000, 1.000000000000000000, -0.0000000000000000000 ) ) ;
#386 = CARTESIAN_POINT ( 'NONE',  ( 0.1969999999999999800, 0.1921165062896113000, -0.2818503949999999800 ) ) ;
#387 = DIRECTION ( 'NONE',  ( -1.000000000000000000, 4.818676322157797600E-017, -0.0000000000000000000 ) ) ;
#388 = VERTEX_POINT ( 'NONE', #48 ) ;
ENDSEC;
END-ISO-10303-21;
