ISO-10303-21;
HEADER;
FILE_DESCRIPTION (( 'STEP AP203' ),
    '1' );
FILE_NAME ('D0901998-v1_AdvLIGO_SUS_HSTS_Upper Wire Clamp, Outside, Angled.STEP',
    '2010-06-15T15:18:51',
    ( 'Dwayne Giardina' ),
    ( 'CA Institute of Technology' ),
    'SwSTEP 2.0',
    'SolidWorks 2009',
    '' );
FILE_SCHEMA (( 'CONFIG_CONTROL_DESIGN' ));
ENDSEC;

DATA;
#1 = EDGE_CURVE ( 'NONE', #57, #51, #334, .T. ) ;
#2 = EDGE_CURVE ( 'NONE', #52, #58, #350, .T. ) ;
#3 = EDGE_CURVE ( 'NONE', #54, #53, #347, .T. ) ;
#4 = EDGE_CURVE ( 'NONE', #51, #50, #345, .T. ) ;
#5 = EDGE_CURVE ( 'NONE', #49, #55, #346, .T. ) ;
#6 = EDGE_CURVE ( 'NONE', #54, #49, #276, .T. ) ;
#7 = EDGE_CURVE ( 'NONE', #63, #62, #280, .T. ) ;
#8 = EDGE_CURVE ( 'NONE', #53, #55, #281, .T. ) ;
#9 = EDGE_CURVE ( 'NONE', #61, #60, #323, .T. ) ;
#10 = EDGE_CURVE ( 'NONE', #58, #56, #282, .T. ) ;
#11 = EDGE_CURVE ( 'NONE', #48, #52, #201, .T. ) ;
#12 = EDGE_CURVE ( 'NONE', #48, #56, #310, .T. ) ;
#13 = AXIS2_PLACEMENT_3D ( 'NONE', #70, #71, #72 ) ;
#14 = AXIS2_PLACEMENT_3D ( 'NONE', #83, #84, #45 ) ;
#15 = AXIS2_PLACEMENT_3D ( 'NONE', #108, #109, #110 ) ;
#16 = AXIS2_PLACEMENT_3D ( 'NONE', #111, #112, #113 ) ;
#17 = AXIS2_PLACEMENT_3D ( 'NONE', #114, #115, #116 ) ;
#18 = AXIS2_PLACEMENT_3D ( 'NONE', #118, #119, #120 ) ;
#19 = AXIS2_PLACEMENT_3D ( 'NONE', #122, #123, #124 ) ;
#20 = AXIS2_PLACEMENT_3D ( 'NONE', #125, #126, #127 ) ;
#21 = AXIS2_PLACEMENT_3D ( 'NONE', #129, #130, #131 ) ;
#22 = AXIS2_PLACEMENT_3D ( 'NONE', #133, #134, #135 ) ;
#23 = AXIS2_PLACEMENT_3D ( 'NONE', #136, #137, #138 ) ;
#24 = AXIS2_PLACEMENT_3D ( 'NONE', #139, #140, #141 ) ;
#25 = AXIS2_PLACEMENT_3D ( 'NONE', #152, #153, #154 ) ;
#26 = AXIS2_PLACEMENT_3D ( 'NONE', #161, #162, #163 ) ;
#27 = AXIS2_PLACEMENT_3D ( 'NONE', #177, #178, #179 ) ;
#28 = CC_DESIGN_PERSON_AND_ORGANIZATION_ASSIGNMENT ( #251, #183, ( #262 ) ) ;
#29 = PRODUCT_DEFINITION ( 'UNKNOWN', '', #34, #202 ) ;
#30 = APPROVAL ( #186, 'UNSPECIFIED' ) ;
#31 = CC_DESIGN_APPROVAL ( #30, ( #29 ) ) ;
#32 = CC_DESIGN_PERSON_AND_ORGANIZATION_ASSIGNMENT ( #243, #188, ( #29 ) ) ;
#33 = CC_DESIGN_DATE_AND_TIME_ASSIGNMENT ( #239, #47, ( #29 ) ) ;
#34 = PRODUCT_DEFINITION_FORMATION_WITH_SPECIFIED_SOURCE ( 'ANY', '', #262, .NOT_KNOWN. ) ;
#35 = APPROVAL ( #189, 'UNSPECIFIED' ) ;
#36 = CC_DESIGN_APPROVAL ( #35, ( #34 ) ) ;
#37 = CC_DESIGN_PERSON_AND_ORGANIZATION_ASSIGNMENT ( #231, #191, ( #34 ) ) ;
#38 = CC_DESIGN_PERSON_AND_ORGANIZATION_ASSIGNMENT ( #230, #192, ( #34 ) ) ;
#39 = CC_DESIGN_PERSON_AND_ORGANIZATION_ASSIGNMENT ( #227, #194, ( #229 ) ) ;
#40 = CC_DESIGN_DATE_AND_TIME_ASSIGNMENT ( #224, #195, ( #229 ) ) ;
#41 = APPROVAL ( #196, 'UNSPECIFIED' ) ;
#42 = CC_DESIGN_APPROVAL ( #41, ( #229 ) ) ;
#43 = CC_DESIGN_SECURITY_CLASSIFICATION ( #229, ( #34 ) ) ;
#44 = PRODUCT_RELATED_PRODUCT_CATEGORY ( 'detail', '', ( #262 ) ) ;
#45 = DIRECTION ( 'NONE',  ( 0.0000000000000000000, 0.0000000000000000000, 1.000000000000000000 ) ) ;
#46 = PLANE ( 'NONE',  #20 ) ;
#47 = DATE_TIME_ROLE ( 'creation_date' ) ;
#48 = VERTEX_POINT ( 'NONE', #91 ) ;
#49 = VERTEX_POINT ( 'NONE', #92 ) ;
#50 = VERTEX_POINT ( 'NONE', #93 ) ;
#51 = VERTEX_POINT ( 'NONE', #94 ) ;
#52 = VERTEX_POINT ( 'NONE', #95 ) ;
#53 = VERTEX_POINT ( 'NONE', #96 ) ;
#54 = VERTEX_POINT ( 'NONE', #97 ) ;
#55 = VERTEX_POINT ( 'NONE', #98 ) ;
#56 = VERTEX_POINT ( 'NONE', #99 ) ;
#57 = VERTEX_POINT ( 'NONE', #100 ) ;
#58 = VERTEX_POINT ( 'NONE', #101 ) ;
#59 = VERTEX_POINT ( 'NONE', #102 ) ;
#60 = VERTEX_POINT ( 'NONE', #103 ) ;
#61 = VERTEX_POINT ( 'NONE', #104 ) ;
#62 = VERTEX_POINT ( 'NONE', #105 ) ;
#63 = VERTEX_POINT ( 'NONE', #106 ) ;
#64 = CARTESIAN_POINT ( 'NONE',  ( 5.003799999999999100, 5.472861636324138200, 1.473199999999998300 ) ) ;
#65 = DIRECTION ( 'NONE',  ( -1.096467256887979300E-033, -1.000000000000000000, 0.0000000000000000000 ) ) ;
#66 = CARTESIAN_POINT ( 'NONE',  ( -5.003800000000000900, 5.472861636324138200, -1.473200000000000500 ) ) ;
#67 = DIRECTION ( 'NONE',  ( -1.096467256887979300E-033, -1.000000000000000000, 0.0000000000000000000 ) ) ;
#68 = CARTESIAN_POINT ( 'NONE',  ( 8.000999999999999400, 0.0000000000000000000, 3.048000000000000000 ) ) ;
#69 = DIRECTION ( 'NONE',  ( 1.000000000000000000, 1.096467256887979300E-033, 0.0000000000000000000 ) ) ;
#70 = CARTESIAN_POINT ( 'NONE',  ( 5.003799999999999100, 0.0000000000000000000, -1.734723475976807100E-015 ) ) ;
#71 = DIRECTION ( 'NONE',  ( 1.096467256887979300E-033, 1.000000000000000000, 0.0000000000000000000 ) ) ;
#72 = DIRECTION ( 'NONE',  ( 0.0000000000000000000, 0.0000000000000000000, 1.000000000000000000 ) ) ;
#73 = CARTESIAN_POINT ( 'NONE',  ( 8.000999999999999400, 0.0000000000000000000, -3.047999999999999600 ) ) ;
#74 = DIRECTION ( 'NONE',  ( 1.000000000000000000, 1.096467256887979300E-033, 0.0000000000000000000 ) ) ;
#75 = CARTESIAN_POINT ( 'NONE',  ( -8.000999999999999400, 0.0000000000000000000, 3.048000000000000000 ) ) ;
#76 = DIRECTION ( 'NONE',  ( 0.0000000000000000000, 0.0000000000000000000, -1.000000000000000000 ) ) ;
#77 = CARTESIAN_POINT ( 'NONE',  ( -8.000999999999999400, 5.003800000000000000, -3.047999999999999600 ) ) ;
#78 = DIRECTION ( 'NONE',  ( -1.000000000000000000, -1.096467256887979300E-033, 0.0000000000000000000 ) ) ;
#79 = CARTESIAN_POINT ( 'NONE',  ( 8.000999999999999400, 0.0000000000000000000, 3.048000000000000000 ) ) ;
#80 = DIRECTION ( 'NONE',  ( 0.0000000000000000000, 0.0000000000000000000, -1.000000000000000000 ) ) ;
#81 = CARTESIAN_POINT ( 'NONE',  ( 8.000999999999999400, 5.472861636324138200, 3.047999999999999600 ) ) ;
#82 = DIRECTION ( 'NONE',  ( -1.000000000000000000, -1.096467256887979300E-033, 0.0000000000000000000 ) ) ;
#83 = CARTESIAN_POINT ( 'NONE',  ( -5.003800000000000900, 0.0000000000000000000, -4.336808689942017700E-016 ) ) ;
#84 = DIRECTION ( 'NONE',  ( 1.096467256887979300E-033, 1.000000000000000000, 0.0000000000000000000 ) ) ;
#85 = CARTESIAN_POINT ( 'NONE',  ( -5.003800000000000900, 5.351687380273735300, 1.473199999999999600 ) ) ;
#86 = CARTESIAN_POINT ( 'NONE',  ( -7.950200000000000600, 5.351687380273735300, 1.473200000000000100 ) ) ;
#87 = CARTESIAN_POINT ( 'NONE',  ( -7.950200000000000600, 5.124974256050402100, -1.473200000000000700 ) ) ;
#88 = CARTESIAN_POINT ( 'NONE',  ( -5.003800000000000900, 5.124974256050402100, -1.473200000000000500 ) ) ;
#89 = CARTESIAN_POINT ( 'NONE',  ( -5.003800000000000900, 5.472861636324138200, 1.473199999999999600 ) ) ;
#90 = DIRECTION ( 'NONE',  ( -1.096467256887979300E-033, -1.000000000000000000, 0.0000000000000000000 ) ) ;
#91 = CARTESIAN_POINT ( 'NONE',  ( -5.003800000000000900, 5.351687380273735300, 1.473199999999999600 ) ) ;
#92 = CARTESIAN_POINT ( 'NONE',  ( -8.000999999999999400, 0.0000000000000000000, -3.047999999999999600 ) ) ;
#93 = CARTESIAN_POINT ( 'NONE',  ( 5.003799999999999100, 0.0000000000000000000, -1.473200000000001800 ) ) ;
#94 = CARTESIAN_POINT ( 'NONE',  ( 5.003799999999999100, 0.0000000000000000000, 1.473199999999998300 ) ) ;
#95 = CARTESIAN_POINT ( 'NONE',  ( -5.003800000000000900, 5.124974256050402100, -1.473200000000000500 ) ) ;
#96 = CARTESIAN_POINT ( 'NONE',  ( 8.000999999999999400, 0.0000000000000000000, 3.048000000000000000 ) ) ;
#97 = CARTESIAN_POINT ( 'NONE',  ( -8.000999999999999400, 0.0000000000000000000, 3.048000000000000000 ) ) ;
#98 = CARTESIAN_POINT ( 'NONE',  ( 8.000999999999999400, 0.0000000000000000000, -3.047999999999999600 ) ) ;
#99 = CARTESIAN_POINT ( 'NONE',  ( -5.003800000000000900, 0.0000000000000000000, 1.473199999999999600 ) ) ;
#100 = CARTESIAN_POINT ( 'NONE',  ( 5.003799999999999100, 5.351687380273735300, 1.473199999999998300 ) ) ;
#101 = CARTESIAN_POINT ( 'NONE',  ( -5.003800000000000900, 0.0000000000000000000, -1.473200000000000500 ) ) ;
#102 = CARTESIAN_POINT ( 'NONE',  ( 5.003799999999999100, 5.124974256050402100, -1.473200000000001800 ) ) ;
#103 = CARTESIAN_POINT ( 'NONE',  ( -8.000999999999999400, 5.472861636324138200, 3.047999999999999600 ) ) ;
#104 = CARTESIAN_POINT ( 'NONE',  ( 8.000999999999999400, 5.472861636324138200, 3.047999999999999600 ) ) ;
#105 = CARTESIAN_POINT ( 'NONE',  ( -8.000999999999999400, 5.003800000000000000, -3.047999999999999600 ) ) ;
#106 = CARTESIAN_POINT ( 'NONE',  ( 8.000999999999999400, 5.003800000000000000, -3.047999999999999600 ) ) ;
#107 = PLANE ( 'NONE',  #15 ) ;
#108 = CARTESIAN_POINT ( 'NONE',  ( 8.000999999999999400, 0.0000000000000000000, 3.048000000000000000 ) ) ;
#109 = DIRECTION ( 'NONE',  ( 1.084430194735559300E-033, 1.000000000000000000, -0.0000000000000000000 ) ) ;
#110 = DIRECTION ( 'NONE',  ( 0.0000000000000000000, 0.0000000000000000000, 1.000000000000000000 ) ) ;
#111 = CARTESIAN_POINT ( 'NONE',  ( 5.003799999999999100, 5.472861636324138200, -1.734723475976807100E-015 ) ) ;
#112 = DIRECTION ( 'NONE',  ( -1.096467256887979300E-033, -1.000000000000000000, 0.0000000000000000000 ) ) ;
#113 = DIRECTION ( 'NONE',  ( 0.0000000000000000000, 0.0000000000000000000, -1.000000000000000000 ) ) ;
#114 = CARTESIAN_POINT ( 'NONE',  ( -5.003800000000000900, 5.472861636324138200, -4.336808689942017700E-016 ) ) ;
#115 = DIRECTION ( 'NONE',  ( -1.096467256887979300E-033, -1.000000000000000000, 0.0000000000000000000 ) ) ;
#116 = DIRECTION ( 'NONE',  ( 0.0000000000000000000, 0.0000000000000000000, -1.000000000000000000 ) ) ;
#117 = PLANE ( 'NONE',  #18 ) ;
#118 = CARTESIAN_POINT ( 'NONE',  ( 8.000999999999999400, 5.003800000000000000, -3.047999999999999600 ) ) ;
#119 = DIRECTION ( 'NONE',  ( 1.059261469412979900E-033, 0.9970527522269208000, -0.07671902812681186100 ) ) ;
#120 = DIRECTION ( 'NONE',  ( 0.0000000000000000000, 0.07671902812681184700, 0.9970527522269206900 ) ) ;
#121 = PLANE ( 'NONE',  #19 ) ;
#122 = CARTESIAN_POINT ( 'NONE',  ( 8.000999999999999400, 5.003800000000000000, 3.048000000000000000 ) ) ;
#123 = DIRECTION ( 'NONE',  ( -1.000000000000000000, -1.084430194735559300E-033, 0.0000000000000000000 ) ) ;
#124 = DIRECTION ( 'NONE',  ( 0.0000000000000000000, 0.0000000000000000000, 1.000000000000000000 ) ) ;
#125 = CARTESIAN_POINT ( 'NONE',  ( -8.000999999999999400, 0.0000000000000000000, 3.048000000000000000 ) ) ;
#126 = DIRECTION ( 'NONE',  ( 1.000000000000000000, 1.084430194735559300E-033, 0.0000000000000000000 ) ) ;
#127 = DIRECTION ( 'NONE',  ( 0.0000000000000000000, 0.0000000000000000000, -1.000000000000000000 ) ) ;
#128 = PLANE ( 'NONE',  #21 ) ;
#129 = CARTESIAN_POINT ( 'NONE',  ( 8.000999999999999400, 0.0000000000000000000, 3.048000000000000000 ) ) ;
#130 = DIRECTION ( 'NONE',  ( -0.0000000000000000000, 0.0000000000000000000, -1.000000000000000000 ) ) ;
#131 = DIRECTION ( 'NONE',  ( -1.000000000000000000, -1.096467256887979300E-033, 0.0000000000000000000 ) ) ;
#132 = PLANE ( 'NONE',  #22 ) ;
#133 = CARTESIAN_POINT ( 'NONE',  ( 8.000999999999999400, 0.0000000000000000000, -3.047999999999999600 ) ) ;
#134 = DIRECTION ( 'NONE',  ( -0.0000000000000000000, 0.0000000000000000000, -1.000000000000000000 ) ) ;
#135 = DIRECTION ( 'NONE',  ( -1.000000000000000000, -1.096467256887979300E-033, 0.0000000000000000000 ) ) ;
#136 = CARTESIAN_POINT ( 'NONE',  ( 5.003799999999999100, 5.472861636324138200, -1.734723475976807100E-015 ) ) ;
#137 = DIRECTION ( 'NONE',  ( -1.096467256887979300E-033, -1.000000000000000000, 0.0000000000000000000 ) ) ;
#138 = DIRECTION ( 'NONE',  ( 0.0000000000000000000, 0.0000000000000000000, -1.000000000000000000 ) ) ;
#139 = CARTESIAN_POINT ( 'NONE',  ( -5.003800000000000900, 5.472861636324138200, -4.336808689942017700E-016 ) ) ;
#140 = DIRECTION ( 'NONE',  ( -1.096467256887979300E-033, -1.000000000000000000, 0.0000000000000000000 ) ) ;
#141 = DIRECTION ( 'NONE',  ( 0.0000000000000000000, 0.0000000000000000000, -1.000000000000000000 ) ) ;
#142 = CARTESIAN_POINT ( 'NONE',  ( 5.003799999999999100, 5.351687380273735300, 1.473199999999998300 ) ) ;
#143 = CARTESIAN_POINT ( 'NONE',  ( 2.057399999999999500, 5.351687380273735300, 1.473199999999998700 ) ) ;
#144 = CARTESIAN_POINT ( 'NONE',  ( 2.057399999999999500, 5.124974256050402100, -1.473200000000002100 ) ) ;
#145 = CARTESIAN_POINT ( 'NONE',  ( 5.003799999999999100, 5.124974256050402100, -1.473200000000001800 ) ) ;
#146 = CARTESIAN_POINT ( 'NONE',  ( 5.003799999999999100, 5.472861636324138200, -1.473200000000001800 ) ) ;
#147 = DIRECTION ( 'NONE',  ( -1.096467256887979300E-033, -1.000000000000000000, 0.0000000000000000000 ) ) ;
#148 = CARTESIAN_POINT ( 'NONE',  ( -8.000999999999999400, 0.0000000000000000000, -3.047999999999999600 ) ) ;
#149 = DIRECTION ( 'NONE',  ( -1.096467256887979300E-033, -1.000000000000000000, 0.0000000000000000000 ) ) ;
#150 = CARTESIAN_POINT ( 'NONE',  ( 8.000999999999999400, 5.003800000000000000, -3.047999999999999600 ) ) ;
#151 = DIRECTION ( 'NONE',  ( 0.0000000000000000000, -0.07671902812681183300, -0.9970527522269206900 ) ) ;
#152 = CARTESIAN_POINT ( 'NONE',  ( 5.003799999999999100, 0.0000000000000000000, -1.734723475976807100E-015 ) ) ;
#153 = DIRECTION ( 'NONE',  ( 1.096467256887979300E-033, 1.000000000000000000, 0.0000000000000000000 ) ) ;
#154 = DIRECTION ( 'NONE',  ( 0.0000000000000000000, 0.0000000000000000000, 1.000000000000000000 ) ) ;
#155 = CARTESIAN_POINT ( 'NONE',  ( 5.003799999999999100, 5.124974256050402100, -1.473200000000001800 ) ) ;
#156 = CARTESIAN_POINT ( 'NONE',  ( 7.950200000000000600, 5.124974256050402100, -1.473200000000002100 ) ) ;
#157 = CARTESIAN_POINT ( 'NONE',  ( 7.950200000000000600, 5.351687380273735300, 1.473199999999998100 ) ) ;
#158 = CARTESIAN_POINT ( 'NONE',  ( 5.003799999999999100, 5.351687380273735300, 1.473199999999998300 ) ) ;
#159 = CARTESIAN_POINT ( 'NONE',  ( -8.000999999999999400, 0.0000000000000000000, 3.048000000000000000 ) ) ;
#160 = DIRECTION ( 'NONE',  ( -1.096467256887979300E-033, -1.000000000000000000, 0.0000000000000000000 ) ) ;
#161 = CARTESIAN_POINT ( 'NONE',  ( -5.003800000000000900, 0.0000000000000000000, -4.336808689942017700E-016 ) ) ;
#162 = DIRECTION ( 'NONE',  ( 1.096467256887979300E-033, 1.000000000000000000, 0.0000000000000000000 ) ) ;
#163 = DIRECTION ( 'NONE',  ( 0.0000000000000000000, 0.0000000000000000000, 1.000000000000000000 ) ) ;
#164 = CARTESIAN_POINT ( 'NONE',  ( -8.000999999999999400, 5.003800000000000000, -3.047999999999999600 ) ) ;
#165 = DIRECTION ( 'NONE',  ( 0.0000000000000000000, -0.07671902812681183300, -0.9970527522269206900 ) ) ;
#166 = CARTESIAN_POINT ( 'NONE',  ( 8.000999999999999400, 5.003800000000000000, 3.048000000000000000 ) ) ;
#167 = DIRECTION ( 'NONE',  ( 1.096467256887979300E-033, 1.000000000000000000, 0.0000000000000000000 ) ) ;
#168 = CARTESIAN_POINT ( 'NONE',  ( -5.003800000000000900, 5.124974256050402100, -1.473200000000000500 ) ) ;
#169 = CARTESIAN_POINT ( 'NONE',  ( -2.057400000000001200, 5.124974256050402100, -1.473200000000000700 ) ) ;
#170 = CARTESIAN_POINT ( 'NONE',  ( -2.057400000000001200, 5.351687380273735300, 1.473199999999999400 ) ) ;
#171 = CARTESIAN_POINT ( 'NONE',  ( -5.003800000000000900, 5.351687380273735300, 1.473199999999999600 ) ) ;
#172 = CARTESIAN_POINT ( 'NONE',  ( 8.000999999999999400, 5.003800000000000000, -3.047999999999999600 ) ) ;
#173 = DIRECTION ( 'NONE',  ( 1.096467256887979300E-033, 1.000000000000000000, 0.0000000000000000000 ) ) ;
#174 =( LENGTH_UNIT ( ) NAMED_UNIT ( * ) SI_UNIT ( .MILLI., .METRE. ) );
#175 =( NAMED_UNIT ( * ) PLANE_ANGLE_UNIT ( ) SI_UNIT ( $, .RADIAN. ) );
#176 =( NAMED_UNIT ( * ) SI_UNIT ( $, .STERADIAN. ) SOLID_ANGLE_UNIT ( ) );
#177 = CARTESIAN_POINT ( 'NONE',  ( 0.0000000000000000000, 0.0000000000000000000, 0.0000000000000000000 ) ) ;
#178 = DIRECTION ( 'NONE',  ( 0.0000000000000000000, 0.0000000000000000000, 1.000000000000000000 ) ) ;
#179 = DIRECTION ( 'NONE',  ( 1.000000000000000000, 0.0000000000000000000, 0.0000000000000000000 ) ) ;
#180 = APPLICATION_CONTEXT ( 'configuration controlled 3d designs of mechanical parts and assemblies' ) ;
#181 = APPLICATION_PROTOCOL_DEFINITION ( 'international standard', 'config_control_design', 1994, #180 ) ;
#182 = MECHANICAL_CONTEXT ( 'NONE', #180, 'mechanical' ) ;
#183 = PERSON_AND_ORGANIZATION_ROLE ( 'design_owner' ) ;
#184 = APPLICATION_CONTEXT ( 'configuration controlled 3d designs of mechanical parts and assemblies' ) ;
#185 = APPLICATION_PROTOCOL_DEFINITION ( 'international standard', 'config_control_design', 1994, #184 ) ;
#186 = APPROVAL_STATUS ( 'not_yet_approved' ) ;
#187 = APPROVAL_ROLE ( '' ) ;
#188 = PERSON_AND_ORGANIZATION_ROLE ( 'creator' ) ;
#189 = APPROVAL_STATUS ( 'not_yet_approved' ) ;
#190 = APPROVAL_ROLE ( '' ) ;
#191 = PERSON_AND_ORGANIZATION_ROLE ( 'creator' ) ;
#192 = PERSON_AND_ORGANIZATION_ROLE ( 'design_supplier' ) ;
#193 = SECURITY_CLASSIFICATION_LEVEL ( 'unclassified' ) ;
#194 = PERSON_AND_ORGANIZATION_ROLE ( 'classification_officer' ) ;
#195 = DATE_TIME_ROLE ( 'classification_date' ) ;
#196 = APPROVAL_STATUS ( 'not_yet_approved' ) ;
#197 = APPROVAL_ROLE ( '' ) ;
#198 =( BOUNDED_CURVE ( )  B_SPLINE_CURVE ( 3, ( #168, #169, #170, #171 ),
 .UNSPECIFIED., .F., .F. ) 
 B_SPLINE_CURVE_WITH_KNOTS ( ( 4, 4 ),
 ( 0.0000000000000000000, 3.141592653589793100 ),
 .UNSPECIFIED. ) 
 CURVE ( )  GEOMETRIC_REPRESENTATION_ITEM ( )  RATIONAL_B_SPLINE_CURVE ( ( 1.000000000000000000, 0.3333333333333333700, 0.3333333333333333700, 1.000000000000000000 ) ) 
 REPRESENTATION_ITEM ( '' )  );
#199 =( BOUNDED_CURVE ( )  B_SPLINE_CURVE ( 3, ( #155, #156, #157, #158 ),
 .UNSPECIFIED., .F., .T. ) 
 B_SPLINE_CURVE_WITH_KNOTS ( ( 4, 4 ),
 ( 0.0000000000000000000, 3.141592653589793100 ),
 .UNSPECIFIED. ) 
 CURVE ( )  GEOMETRIC_REPRESENTATION_ITEM ( )  RATIONAL_B_SPLINE_CURVE ( ( 1.000000000000000000, 0.3333333333333333700, 0.3333333333333333700, 1.000000000000000000 ) ) 
 REPRESENTATION_ITEM ( '' )  );
#200 =( BOUNDED_CURVE ( )  B_SPLINE_CURVE ( 3, ( #142, #143, #144, #145 ),
 .UNSPECIFIED., .F., .T. ) 
 B_SPLINE_CURVE_WITH_KNOTS ( ( 4, 4 ),
 ( 3.141592653589793100, 6.283185307179586200 ),
 .UNSPECIFIED. ) 
 CURVE ( )  GEOMETRIC_REPRESENTATION_ITEM ( )  RATIONAL_B_SPLINE_CURVE ( ( 1.000000000000000000, 0.3333333333333333700, 0.3333333333333333700, 1.000000000000000000 ) ) 
 REPRESENTATION_ITEM ( '' )  );
#201 =( BOUNDED_CURVE ( )  B_SPLINE_CURVE ( 3, ( #85, #86, #87, #88 ),
 .UNSPECIFIED., .F., .F. ) 
 B_SPLINE_CURVE_WITH_KNOTS ( ( 4, 4 ),
 ( 3.141592653589793100, 6.283185307179586200 ),
 .UNSPECIFIED. ) 
 CURVE ( )  GEOMETRIC_REPRESENTATION_ITEM ( )  RATIONAL_B_SPLINE_CURVE ( ( 1.000000000000000000, 0.3333333333333333700, 0.3333333333333333700, 1.000000000000000000 ) ) 
 REPRESENTATION_ITEM ( '' )  );
#202 = DESIGN_CONTEXT ( 'detailed design', #184, 'design' ) ;
#203 = PRODUCT_DEFINITION_SHAPE ( 'NONE', 'NONE',  #29 ) ;
#204 = FACE_OUTER_BOUND ( 'NONE', #302, .T. ) ;
#205 = CYLINDRICAL_SURFACE ( 'NONE', #23, 1.473200000000000100 ) ;
#206 = VECTOR ( 'NONE', #149, 1000.000000000000000 ) ;
#207 = LINE ( 'NONE', #146, #210 ) ;
#208 = CYLINDRICAL_SURFACE ( 'NONE', #24, 1.473200000000000100 ) ;
#209 = LINE ( 'NONE', #148, #206 ) ;
#210 = VECTOR ( 'NONE', #147, 1000.000000000000000 ) ;
#211 = LINE ( 'NONE', #150, #212 ) ;
#212 = VECTOR ( 'NONE', #151, 1000.000000000000200 ) ;
#213 = CIRCLE ( 'NONE', #25, 1.473200000000000100 ) ;
#214 = LINE ( 'NONE', #164, #258 ) ;
#215 = LINE ( 'NONE', #159, #216 ) ;
#216 = VECTOR ( 'NONE', #160, 1000.000000000000000 ) ;
#217 = APPROVAL_DATE_TIME ( #218, #41 ) ;
#218 = DATE_AND_TIME ( #219, #220 ) ;
#219 = CALENDAR_DATE ( 2010, 15, 6 ) ;
#220 = LOCAL_TIME ( 10, 18, 51.00000000000000000, #221 ) ;
#221 = COORDINATED_UNIVERSAL_TIME_OFFSET ( 6, 0, .BEHIND. ) ;
#222 = APPROVAL_PERSON_ORGANIZATION ( #223, #41, #197 ) ;
#223 = PERSON_AND_ORGANIZATION ( #261, #254 ) ;
#224 = DATE_AND_TIME ( #225, #228 ) ;
#225 = CALENDAR_DATE ( 2010, 15, 6 ) ;
#226 = COORDINATED_UNIVERSAL_TIME_OFFSET ( 6, 0, .BEHIND. ) ;
#227 = PERSON_AND_ORGANIZATION ( #261, #254 ) ;
#228 = LOCAL_TIME ( 10, 18, 51.00000000000000000, #226 ) ;
#229 = SECURITY_CLASSIFICATION ( '', '', #193 ) ;
#230 = PERSON_AND_ORGANIZATION ( #261, #254 ) ;
#231 = PERSON_AND_ORGANIZATION ( #261, #254 ) ;
#232 = APPROVAL_DATE_TIME ( #235, #35 ) ;
#233 = CALENDAR_DATE ( 2010, 15, 6 ) ;
#234 = LOCAL_TIME ( 10, 18, 51.00000000000000000, #236 ) ;
#235 = DATE_AND_TIME ( #233, #234 ) ;
#236 = COORDINATED_UNIVERSAL_TIME_OFFSET ( 6, 0, .BEHIND. ) ;
#237 = APPROVAL_PERSON_ORGANIZATION ( #238, #35, #190 ) ;
#238 = PERSON_AND_ORGANIZATION ( #261, #254 ) ;
#239 = DATE_AND_TIME ( #240, #241 ) ;
#240 = CALENDAR_DATE ( 2010, 15, 6 ) ;
#241 = LOCAL_TIME ( 10, 18, 51.00000000000000000, #242 ) ;
#242 = COORDINATED_UNIVERSAL_TIME_OFFSET ( 6, 0, .BEHIND. ) ;
#243 = PERSON_AND_ORGANIZATION ( #261, #254 ) ;
#244 = APPROVAL_DATE_TIME ( #245, #30 ) ;
#245 = DATE_AND_TIME ( #246, #247 ) ;
#246 = CALENDAR_DATE ( 2010, 15, 6 ) ;
#247 = LOCAL_TIME ( 10, 18, 51.00000000000000000, #248 ) ;
#248 = COORDINATED_UNIVERSAL_TIME_OFFSET ( 6, 0, .BEHIND. ) ;
#249 = APPROVAL_PERSON_ORGANIZATION ( #250, #30, #187 ) ;
#250 = PERSON_AND_ORGANIZATION ( #261, #254 ) ;
#251 = PERSON_AND_ORGANIZATION ( #261, #254 ) ;
#252 = SHAPE_DEFINITION_REPRESENTATION ( #203, #265 ) ;
#253 =( GEOMETRIC_REPRESENTATION_CONTEXT ( 3 ) GLOBAL_UNCERTAINTY_ASSIGNED_CONTEXT ( ( #264 ) ) GLOBAL_UNIT_ASSIGNED_CONTEXT ( ( #174, #175, #176 ) ) REPRESENTATION_CONTEXT ( 'NONE', 'WORKASPACE' ) );
#254 = ORGANIZATION ( 'UNSPECIFIED', 'UNSPECIFIED', '' ) ;
#255 = VECTOR ( 'NONE', #173, 1000.000000000000000 ) ;
#256 = LINE ( 'NONE', #172, #255 ) ;
#257 = VECTOR ( 'NONE', #167, 1000.000000000000000 ) ;
#258 = VECTOR ( 'NONE', #165, 1000.000000000000200 ) ;
#259 = CIRCLE ( 'NONE', #26, 1.473200000000000100 ) ;
#260 = LINE ( 'NONE', #166, #257 ) ;
#261 = PERSON ( 'UNSPECIFIED', 'UNSPECIFIED', 'UNSPECIFIED', ('UNSPECIFIED'), ('UNSPECIFIED'), ('UNSPECIFIED') ) ;
#262 = PRODUCT ( 'D0901998-v1_AdvLIGO_SUS_HSTS_Upper Wire Clamp, Outside, Angled', 'D0901998-v1_AdvLIGO_SUS_HSTS_Upper Wire Clamp, Outside, Angled', '', ( #182 ) ) ;
#263 = MANIFOLD_SOLID_BREP ( 'NONE', #336 ) ;
#264 = UNCERTAINTY_MEASURE_WITH_UNIT (LENGTH_MEASURE( 1.000000000000000100E-005 ), #174, 'distance_accuracy_value', 'NONE');
#265 = ADVANCED_BREP_SHAPE_REPRESENTATION ( 'D0901998-v1_AdvLIGO_SUS_HSTS_Upper Wire Clamp, Outside, Angled', ( #263, #27 ), #253 ) ;
#266 = ADVANCED_FACE ( 'NONE', ( #319, #318, #309 ), #107, .F. ) ;
#267 = ADVANCED_FACE ( 'Face1', ( #297 ), #331, .F. ) ;
#268 = ADVANCED_FACE ( 'NONE', ( #327 ), #298, .F. ) ;
#269 = ADVANCED_FACE ( 'NONE', ( #328, #288, #290 ), #117, .T. ) ;
#270 = ADVANCED_FACE ( 'NONE', ( #322 ), #121, .F. ) ;
#271 = ADVANCED_FACE ( 'NONE', ( #289 ), #46, .F. ) ;
#272 = ADVANCED_FACE ( 'NONE', ( #321 ), #128, .F. ) ;
#273 = ADVANCED_FACE ( 'NONE', ( #373 ), #132, .T. ) ;
#274 = ADVANCED_FACE ( 'Face1', ( #372 ), #205, .F. ) ;
#275 = ADVANCED_FACE ( 'NONE', ( #204 ), #208, .F. ) ;
#276 = LINE ( 'NONE', #75, #278 ) ;
#277 = VECTOR ( 'NONE', #74, 1000.000000000000000 ) ;
#278 = VECTOR ( 'NONE', #76, 1000.000000000000000 ) ;
#279 = VECTOR ( 'NONE', #78, 1000.000000000000000 ) ;
#280 = LINE ( 'NONE', #77, #279 ) ;
#281 = LINE ( 'NONE', #79, #283 ) ;
#282 = CIRCLE ( 'NONE', #14, 1.473200000000000100 ) ;
#283 = VECTOR ( 'NONE', #80, 1000.000000000000000 ) ;
#284 = EDGE_LOOP ( 'NONE', ( #344, #343, #341, #342 ) ) ;
#285 = ORIENTED_EDGE ( 'NONE', *, *, #6, .T. ) ;
#286 = ORIENTED_EDGE ( 'NONE', *, *, #2, .F. ) ;
#287 = ORIENTED_EDGE ( 'NONE', *, *, #12, .T. ) ;
#288 = FACE_OUTER_BOUND ( 'NONE', #313, .T. ) ;
#289 = FACE_OUTER_BOUND ( 'NONE', #325, .T. ) ;
#290 = FACE_BOUND ( 'NONE', #300, .T. ) ;
#291 = EDGE_LOOP ( 'NONE', ( #312, #308, #295, #315 ) ) ;
#292 = ORIENTED_EDGE ( 'NONE', *, *, #8, .F. ) ;
#293 = EDGE_LOOP ( 'NONE', ( #306, #316 ) ) ;
#294 = EDGE_LOOP ( 'NONE', ( #324, #326 ) ) ;
#295 = ORIENTED_EDGE ( 'NONE', *, *, #378, .F. ) ;
#296 = EDGE_LOOP ( 'NONE', ( #314, #329 ) ) ;
#297 = FACE_OUTER_BOUND ( 'NONE', #291, .T. ) ;
#298 = CYLINDRICAL_SURFACE ( 'NONE', #17, 1.473200000000000100 ) ;
#299 = EDGE_LOOP ( 'NONE', ( #285, #307, #292, #335 ) ) ;
#300 = EDGE_LOOP ( 'NONE', ( #368, #367 ) ) ;
#301 = EDGE_LOOP ( 'NONE', ( #353, #352, #364, #351 ) ) ;
#302 = EDGE_LOOP ( 'NONE', ( #340, #339, #338, #337 ) ) ;
#303 = ORIENTED_EDGE ( 'NONE', *, *, #382, .F. ) ;
#304 = ORIENTED_EDGE ( 'NONE', *, *, #10, .F. ) ;
#305 = ORIENTED_EDGE ( 'NONE', *, *, #11, .F. ) ;
#306 = ORIENTED_EDGE ( 'NONE', *, *, #379, .T. ) ;
#307 = ORIENTED_EDGE ( 'NONE', *, *, #5, .T. ) ;
#308 = ORIENTED_EDGE ( 'NONE', *, *, #1, .T. ) ;
#309 = FACE_BOUND ( 'NONE', #294, .T. ) ;
#310 = LINE ( 'NONE', #89, #320 ) ;
#311 = EDGE_LOOP ( 'NONE', ( #366, #365, #363, #362 ) ) ;
#312 = ORIENTED_EDGE ( 'NONE', *, *, #374, .F. ) ;
#313 = EDGE_LOOP ( 'NONE', ( #303, #371, #370, #369 ) ) ;
#314 = ORIENTED_EDGE ( 'NONE', *, *, #378, .T. ) ;
#315 = ORIENTED_EDGE ( 'NONE', *, *, #375, .F. ) ;
#316 = ORIENTED_EDGE ( 'NONE', *, *, #374, .T. ) ;
#317 = EDGE_LOOP ( 'NONE', ( #305, #287, #304, #286 ) ) ;
#318 = FACE_OUTER_BOUND ( 'NONE', #299, .T. ) ;
#319 = FACE_BOUND ( 'NONE', #296, .T. ) ;
#320 = VECTOR ( 'NONE', #90, 1000.000000000000000 ) ;
#321 = FACE_OUTER_BOUND ( 'NONE', #332, .T. ) ;
#322 = FACE_OUTER_BOUND ( 'NONE', #311, .T. ) ;
#323 = LINE ( 'NONE', #81, #330 ) ;
#324 = ORIENTED_EDGE ( 'NONE', *, *, #10, .T. ) ;
#325 = EDGE_LOOP ( 'NONE', ( #361, #360, #359, #358 ) ) ;
#326 = ORIENTED_EDGE ( 'NONE', *, *, #381, .T. ) ;
#327 = FACE_OUTER_BOUND ( 'NONE', #317, .T. ) ;
#328 = FACE_BOUND ( 'NONE', #293, .T. ) ;
#329 = ORIENTED_EDGE ( 'NONE', *, *, #4, .T. ) ;
#330 = VECTOR ( 'NONE', #82, 1000.000000000000000 ) ;
#331 = CYLINDRICAL_SURFACE ( 'NONE', #16, 1.473200000000000100 ) ;
#332 = EDGE_LOOP ( 'NONE', ( #357, #356, #355, #354 ) ) ;
#333 = VECTOR ( 'NONE', #65, 1000.000000000000000 ) ;
#334 = LINE ( 'NONE', #64, #333 ) ;
#335 = ORIENTED_EDGE ( 'NONE', *, *, #3, .F. ) ;
#336 = CLOSED_SHELL ( 'NONE', ( #268, #267, #266, #269, #270, #271, #272, #273, #274, #275 ) ) ;
#337 = ORIENTED_EDGE ( 'NONE', *, *, #381, .F. ) ;
#338 = ORIENTED_EDGE ( 'NONE', *, *, #2, .T. ) ;
#339 = ORIENTED_EDGE ( 'NONE', *, *, #384, .F. ) ;
#340 = ORIENTED_EDGE ( 'NONE', *, *, #12, .F. ) ;
#341 = ORIENTED_EDGE ( 'NONE', *, *, #375, .T. ) ;
#342 = ORIENTED_EDGE ( 'NONE', *, *, #4, .F. ) ;
#343 = ORIENTED_EDGE ( 'NONE', *, *, #379, .F. ) ;
#344 = ORIENTED_EDGE ( 'NONE', *, *, #1, .F. ) ;
#345 = CIRCLE ( 'NONE', #13, 1.473200000000000100 ) ;
#346 = LINE ( 'NONE', #73, #277 ) ;
#347 = LINE ( 'NONE', #68, #348 ) ;
#348 = VECTOR ( 'NONE', #69, 1000.000000000000000 ) ;
#349 = VECTOR ( 'NONE', #67, 1000.000000000000000 ) ;
#350 = LINE ( 'NONE', #66, #349 ) ;
#351 = ORIENTED_EDGE ( 'NONE', *, *, #7, .F. ) ;
#352 = ORIENTED_EDGE ( 'NONE', *, *, #5, .F. ) ;
#353 = ORIENTED_EDGE ( 'NONE', *, *, #385, .F. ) ;
#354 = ORIENTED_EDGE ( 'NONE', *, *, #3, .T. ) ;
#355 = ORIENTED_EDGE ( 'NONE', *, *, #380, .T. ) ;
#356 = ORIENTED_EDGE ( 'NONE', *, *, #9, .T. ) ;
#357 = ORIENTED_EDGE ( 'NONE', *, *, #383, .T. ) ;
#358 = ORIENTED_EDGE ( 'NONE', *, *, #6, .F. ) ;
#359 = ORIENTED_EDGE ( 'NONE', *, *, #376, .T. ) ;
#360 = ORIENTED_EDGE ( 'NONE', *, *, #382, .T. ) ;
#361 = ORIENTED_EDGE ( 'NONE', *, *, #380, .F. ) ;
#362 = ORIENTED_EDGE ( 'NONE', *, *, #383, .F. ) ;
#363 = ORIENTED_EDGE ( 'NONE', *, *, #377, .F. ) ;
#364 = ORIENTED_EDGE ( 'NONE', *, *, #376, .F. ) ;
#365 = ORIENTED_EDGE ( 'NONE', *, *, #385, .T. ) ;
#366 = ORIENTED_EDGE ( 'NONE', *, *, #8, .T. ) ;
#367 = ORIENTED_EDGE ( 'NONE', *, *, #11, .T. ) ;
#368 = ORIENTED_EDGE ( 'NONE', *, *, #384, .T. ) ;
#369 = ORIENTED_EDGE ( 'NONE', *, *, #7, .T. ) ;
#370 = ORIENTED_EDGE ( 'NONE', *, *, #377, .T. ) ;
#371 = ORIENTED_EDGE ( 'NONE', *, *, #9, .F. ) ;
#372 = FACE_OUTER_BOUND ( 'NONE', #284, .T. ) ;
#373 = FACE_OUTER_BOUND ( 'NONE', #301, .T. ) ;
#374 = EDGE_CURVE ( 'NONE', #57, #59, #200, .T. ) ;
#375 = EDGE_CURVE ( 'NONE', #59, #50, #207, .T. ) ;
#376 = EDGE_CURVE ( 'NONE', #62, #49, #209, .T. ) ;
#377 = EDGE_CURVE ( 'NONE', #61, #63, #211, .T. ) ;
#378 = EDGE_CURVE ( 'NONE', #50, #51, #213, .T. ) ;
#379 = EDGE_CURVE ( 'NONE', #59, #57, #199, .T. ) ;
#380 = EDGE_CURVE ( 'NONE', #60, #54, #215, .T. ) ;
#381 = EDGE_CURVE ( 'NONE', #56, #58, #259, .T. ) ;
#382 = EDGE_CURVE ( 'NONE', #60, #62, #214, .T. ) ;
#383 = EDGE_CURVE ( 'NONE', #53, #61, #260, .T. ) ;
#384 = EDGE_CURVE ( 'NONE', #52, #48, #198, .T. ) ;
#385 = EDGE_CURVE ( 'NONE', #55, #63, #256, .T. ) ;
ENDSEC;
END-ISO-10303-21;
