ISO-10303-21;
HEADER;
FILE_DESCRIPTION (( 'STEP AP214' ),
    '1' );
FILE_NAME ('D1000536-v3.STEP',
    '2013-02-22T17:45:29',
    ( 'ligo' ),
    ( 'Microsoft' ),
    'SwSTEP 2.0',
    'SolidWorks 2013',
    '' );
FILE_SCHEMA (( 'AUTOMOTIVE_DESIGN' ));
ENDSEC;

DATA;
#1 = CARTESIAN_POINT ( 'NONE',  ( 1.539864963814592300, 8.741913579725642300E-015, 0.03749999999999803500 ) ) ;
#2 = VECTOR ( 'NONE', #178, 39.37007874015748100 ) ;
#3 = EDGE_LOOP ( 'NONE', ( #12, #19 ) ) ;
#4 = CARTESIAN_POINT ( 'NONE',  ( 0.0000000000000000000, 2.185478394931410600E-015, -0.03749999999999871500 ) ) ;
#5 = CARTESIAN_POINT ( 'NONE',  ( 0.6315819370372033300, 0.3000000000000202500, 0.03750000000000412700 ) ) ;
#6 = EDGE_CURVE ( 'NONE', #223, #64, #38, .T. ) ;
#7 = FACE_OUTER_BOUND ( 'NONE', #245, .T. ) ;
#8 = ORIENTED_EDGE ( 'NONE', *, *, #52, .F. ) ;
#9 = DIRECTION ( 'NONE',  ( -1.000000000000000000, 6.535521515943217600E-016, -6.943991610689668300E-016 ) ) ;
#10 = ORIENTED_EDGE ( 'NONE', *, *, #6, .F. ) ;
#11 = ORIENTED_EDGE ( 'NONE', *, *, #136, .F. ) ;
#12 = ORIENTED_EDGE ( 'NONE', *, *, #205, .F. ) ;
#13 = DIRECTION ( 'NONE',  ( 7.238055178266621100E-016, -5.419199792802119900E-016, 1.000000000000000000 ) ) ;
#14 = CIRCLE ( 'NONE', #142, 0.3000000000000003200 ) ;
#15 = AXIS2_PLACEMENT_3D ( 'NONE', #246, #154, #114 ) ;
#16 = SURFACE_SIDE_STYLE ('',( #259 ) ) ;
#17 = CYLINDRICAL_SURFACE ( 'NONE', #47, 0.1044999999999999400 ) ;
#18 = ORIENTED_EDGE ( 'NONE', *, *, #66, .T. ) ;
#19 = ORIENTED_EDGE ( 'NONE', *, *, #66, .F. ) ;
#20 = PLANE ( 'NONE',  #44 ) ;
#21 = CARTESIAN_POINT ( 'NONE',  ( 4.370956789862821100E-015, 1.000000000000014400, -0.03749999999999938800 ) ) ;
#22 = EDGE_CURVE ( 'NONE', #239, #170, #230, .T. ) ;
#23 =( LENGTH_UNIT ( ) NAMED_UNIT ( * ) SI_UNIT ( $, .METRE. ) );
#24 = CYLINDRICAL_SURFACE ( 'NONE', #196, 0.3000000000000003200 ) ;
#25 = ORIENTED_EDGE ( 'NONE', *, *, #149, .T. ) ;
#26 = DIRECTION ( 'NONE',  ( 1.000000000000000000, -7.216449660063507700E-016, -7.238055178266624100E-016 ) ) ;
#27 = VECTOR ( 'NONE', #274, 39.37007874015748100 ) ;
#28 =( GEOMETRIC_REPRESENTATION_CONTEXT ( 3 ) GLOBAL_UNCERTAINTY_ASSIGNED_CONTEXT ( ( #185 ) ) GLOBAL_UNIT_ASSIGNED_CONTEXT ( ( #82, #106, #95 ) ) REPRESENTATION_CONTEXT ( 'NONE', 'WORKASPACE' ) );
#29 = ORIENTED_EDGE ( 'NONE', *, *, #165, .T. ) ;
#30 = EDGE_LOOP ( 'NONE', ( #211, #116 ) ) ;
#31 = DIRECTION ( 'NONE',  ( 7.238055178266622100E-016, -5.419199792802119900E-016, 1.000000000000000000 ) ) ;
#32 = DIRECTION ( 'NONE',  ( -1.000000000000000000, 2.504193994192238600E-015, -7.114187483500677900E-016 ) ) ;
#33 = DIRECTION ( 'NONE',  ( 7.050342886256040900E-016, 5.419199792802109100E-016, -1.000000000000000000 ) ) ;
#34 = CARTESIAN_POINT ( 'NONE',  ( 0.0000000000000000000, 2.185478394931410600E-015, -0.03749999999999871500 ) ) ;
#35 = ORIENTED_EDGE ( 'NONE', *, *, #122, .F. ) ;
#36 = CARTESIAN_POINT ( 'NONE',  ( 8.741913579725642300E-015, 1.000000000000010000, 0.03750000000000022100 ) ) ;
#37 = EDGE_CURVE ( 'NONE', #229, #268, #61, .T. ) ;
#38 = LINE ( 'NONE', #133, #27 ) ;
#39 = PRODUCT_DEFINITION_CONTEXT ( 'detailed design', #262, 'design' ) ;
#40 = FACE_OUTER_BOUND ( 'NONE', #98, .T. ) ;
#41 = ORIENTED_EDGE ( 'NONE', *, *, #107, .F. ) ;
#42 =( NAMED_UNIT ( * ) SI_UNIT ( $, .STERADIAN. ) SOLID_ANGLE_UNIT ( ) );
#43 =( NAMED_UNIT ( * ) SI_UNIT ( $, .STERADIAN. ) SOLID_ANGLE_UNIT ( ) );
#44 = AXIS2_PLACEMENT_3D ( 'NONE', #218, #26, #187 ) ;
#45 = DIRECTION ( 'NONE',  ( -1.000000000000000000, 6.829619984160651100E-016, -7.114187483500677900E-016 ) ) ;
#46 = PLANE ( 'NONE',  #224 ) ;
#47 = AXIS2_PLACEMENT_3D ( 'NONE', #276, #195, #210 ) ;
#48 = ORIENTED_EDGE ( 'NONE', *, *, #99, .F. ) ;
#49 = CARTESIAN_POINT ( 'NONE',  ( 0.0000000000000000000, 8.741913579725642300E-015, 0.03749999999999871500 ) ) ;
#50 = APPLICATION_CONTEXT ( 'automotive_design' ) ;
#51 = DIRECTION ( 'NONE',  ( -1.000000000000000000, 6.829619984160651100E-016, -7.114187483500677900E-016 ) ) ;
#52 = EDGE_CURVE ( 'NONE', #265, #101, #115, .T. ) ;
#53 = PRODUCT ( 'D1000536-v3', 'D1000536-v3', '', ( #78 ) ) ;
#54 = DIRECTION ( 'NONE',  ( -7.238055178266622100E-016, 5.419199792802118000E-016, -1.000000000000000000 ) ) ;
#55 = VECTOR ( 'NONE', #31, 39.37007874015748100 ) ;
#56 = DIRECTION ( 'NONE',  ( -7.238055178266621100E-016, 5.419199792802119900E-016, -1.000000000000000000 ) ) ;
#57 = FACE_BOUND ( 'NONE', #3, .T. ) ;
#58 = EDGE_LOOP ( 'NONE', ( #254, #10, #281, #203 ) ) ;
#59 = AXIS2_PLACEMENT_3D ( 'NONE', #1, #264, #104 ) ;
#60 =( LENGTH_UNIT ( ) NAMED_UNIT ( * ) SI_UNIT ( $, .METRE. ) );
#61 = LINE ( 'NONE', #92, #55 ) ;
#62 = LINE ( 'NONE', #225, #228 ) ;
#63 = DIRECTION ( 'NONE',  ( -7.238055178266621100E-016, 5.419199792802119900E-016, -1.000000000000000000 ) ) ;
#64 = VERTEX_POINT ( 'NONE', #275 ) ;
#65 = ADVANCED_FACE ( 'NONE', ( #255 ), #126, .F. ) ;
#66 = EDGE_CURVE ( 'NONE', #268, #101, #121, .T. ) ;
#67 = CARTESIAN_POINT ( 'NONE',  ( 1.539864963814596500, 1.311287036958846300E-014, -0.03749999999998845900 ) ) ;
#68 = FACE_BOUND ( 'NONE', #30, .T. ) ;
#69 = LINE ( 'NONE', #73, #108 ) ;
#70 = STYLED_ITEM ( 'NONE', ( #172 ), #81 ) ;
#71 = DIRECTION ( 'NONE',  ( 7.238055178266622100E-016, -5.419199792802119900E-016, 1.000000000000000000 ) ) ;
#72 = ORIENTED_EDGE ( 'NONE', *, *, #244, .T. ) ;
#73 = CARTESIAN_POINT ( 'NONE',  ( 4.370956789862821100E-015, 1.000000000000014400, -0.03749999999999938800 ) ) ;
#74 = AXIS2_PLACEMENT_3D ( 'NONE', #252, #56, #9 ) ;
#75 = LINE ( 'NONE', #159, #271 ) ;
#76 = FACE_OUTER_BOUND ( 'NONE', #235, .T. ) ;
#77 = EDGE_CURVE ( 'NONE', #110, #125, #62, .T. ) ;
#78 = PRODUCT_CONTEXT ( 'NONE', #50, 'mechanical' ) ;
#79 = SURFACE_STYLE_USAGE ( .BOTH. , #207 ) ;
#80 = VECTOR ( 'NONE', #54, 39.37007874015748100 ) ;
#81 = ADVANCED_BREP_SHAPE_REPRESENTATION ( 'D1000536-v3', ( #273, #153 ), #28 ) ;
#82 =( CONVERSION_BASED_UNIT ( 'INCH', #90 ) LENGTH_UNIT ( ) NAMED_UNIT ( #258 ) );
#83 = PRESENTATION_LAYER_ASSIGNMENT (  '', '', ( #70 ) ) ;
#84 = DIRECTION ( 'NONE',  ( -0.8386705679454210500, 0.5446390350150316400, -1.276756478318906900E-015 ) ) ;
#85 = PRESENTATION_STYLE_ASSIGNMENT (( #129 ) ) ;
#86 = ORIENTED_EDGE ( 'NONE', *, *, #184, .T. ) ;
#87 = DIRECTION ( 'NONE',  ( -7.238055178266621100E-016, 5.419199792802119900E-016, -1.000000000000000000 ) ) ;
#88 = CARTESIAN_POINT ( 'NONE',  ( 0.5270819370372165100, 1.311287036958846300E-014, -0.03749999999999819400 ) ) ;
#89 = CARTESIAN_POINT ( 'NONE',  ( 0.0000000000000000000, 0.0000000000000000000, 0.0000000000000000000 ) ) ;
#90 = LENGTH_MEASURE_WITH_UNIT ( LENGTH_MEASURE( 0.02539999999999999900 ), #216 );
#91 = AXIS2_PLACEMENT_3D ( 'NONE', #94, #103, #270 ) ;
#92 = CARTESIAN_POINT ( 'NONE',  ( 0.4225819370372034800, 0.3000000000000204200, 0.03750000000000398200 ) ) ;
#93 = CARTESIAN_POINT ( 'NONE',  ( 0.6315819370372033300, 0.3000000000000202500, 0.03750000000000412700 ) ) ;
#94 = CARTESIAN_POINT ( 'NONE',  ( 0.0000000000000000000, 8.741913579725642300E-015, 0.03749999999999871500 ) ) ;
#95 =( NAMED_UNIT ( * ) SI_UNIT ( $, .STERADIAN. ) SOLID_ANGLE_UNIT ( ) );
#96 = CARTESIAN_POINT ( 'NONE',  ( 0.5270819370372034100, 0.3000000000000203100, 0.03750000000000405800 ) ) ;
#97 = LENGTH_MEASURE_WITH_UNIT ( LENGTH_MEASURE( 0.02539999999999999900 ), #23 );
#98 = EDGE_LOOP ( 'NONE', ( #145, #198, #72, #86 ) ) ;
#99 = EDGE_CURVE ( 'NONE', #125, #124, #69, .T. ) ;
#100 = LINE ( 'NONE', #67, #237 ) ;
#101 = VERTEX_POINT ( 'NONE', #5 ) ;
#102 = MECHANICAL_DESIGN_GEOMETRIC_PRESENTATION_REPRESENTATION (  '', ( #70 ), #113 ) ;
#103 = DIRECTION ( 'NONE',  ( 7.050342886256040900E-016, 5.419199792802109100E-016, -1.000000000000000000 ) ) ;
#104 = DIRECTION ( 'NONE',  ( -1.000000000000000000, 7.216449660063509600E-016, -7.050342886256036900E-016 ) ) ;
#105 = ADVANCED_FACE ( 'NONE', ( #7 ), #17, .F. ) ;
#106 =( NAMED_UNIT ( * ) PLANE_ANGLE_UNIT ( ) SI_UNIT ( $, .RADIAN. ) );
#107 = EDGE_CURVE ( 'NONE', #239, #64, #75, .T. ) ;
#108 = VECTOR ( 'NONE', #206, 39.37007874015748100 ) ;
#109 = EDGE_LOOP ( 'NONE', ( #282, #128, #41, #189 ) ) ;
#110 = VERTEX_POINT ( 'NONE', #191 ) ;
#111 = UNCERTAINTY_MEASURE_WITH_UNIT (LENGTH_MEASURE( 1.000000000000000100E-005 ), #147, 'distance_accuracy_value', 'NONE');
#112 = CARTESIAN_POINT ( 'NONE',  ( 0.5270819370372034100, 0.3000000000000203100, 0.03750000000000405800 ) ) ;
#113 =( GEOMETRIC_REPRESENTATION_CONTEXT ( 3 ) GLOBAL_UNCERTAINTY_ASSIGNED_CONTEXT ( ( #132 ) ) GLOBAL_UNIT_ASSIGNED_CONTEXT ( ( #143, #194, #42 ) ) REPRESENTATION_CONTEXT ( 'NONE', 'WORKASPACE' ) );
#114 = DIRECTION ( 'NONE',  ( 1.000000000000000000, -6.535521515943217600E-016, 6.943991610689668300E-016 ) ) ;
#115 = LINE ( 'NONE', #93, #151 ) ;
#116 = ORIENTED_EDGE ( 'NONE', *, *, #227, .F. ) ;
#117 = DIRECTION ( 'NONE',  ( 1.000000000000000000, -6.535521515943217600E-016, 6.943991610689668300E-016 ) ) ;
#118 = APPLICATION_PROTOCOL_DEFINITION ( 'draft international standard', 'automotive_design', 1998, #262 ) ;
#119 = AXIS2_PLACEMENT_3D ( 'NONE', #173, #13, #232 ) ;
#120 = PLANE ( 'NONE',  #131 ) ;
#121 = CIRCLE ( 'NONE', #287, 0.1044999999999999400 ) ;
#122 = EDGE_CURVE ( 'NONE', #158, #124, #137, .T. ) ;
#123 = LINE ( 'NONE', #34, #157 ) ;
#124 = VERTEX_POINT ( 'NONE', #21 ) ;
#125 = VERTEX_POINT ( 'NONE', #186 ) ;
#126 = CYLINDRICAL_SURFACE ( 'NONE', #15, 0.1044999999999999400 ) ;
#127 = ORIENTED_EDGE ( 'NONE', *, *, #244, .F. ) ;
#128 = ORIENTED_EDGE ( 'NONE', *, *, #6, .T. ) ;
#129 = SURFACE_STYLE_USAGE ( .BOTH. , #16 ) ;
#130 = LINE ( 'NONE', #238, #249 ) ;
#131 = AXIS2_PLACEMENT_3D ( 'NONE', #162, #33, #164 ) ;
#132 = UNCERTAINTY_MEASURE_WITH_UNIT (LENGTH_MEASURE( 1.000000000000000100E-005 ), #143, 'distance_accuracy_value', 'NONE');
#133 = CARTESIAN_POINT ( 'NONE',  ( 0.5270819370372209500, 4.370956789862821100E-015, 0.03750000000000141400 ) ) ;
#134 = COLOUR_RGB ( '',0.7529411764705882200, 0.7529411764705882200, 0.7529411764705882200 ) ;
#135 = ORIENTED_EDGE ( 'NONE', *, *, #99, .T. ) ;
#136 = EDGE_CURVE ( 'NONE', #170, #223, #100, .T. ) ;
#137 = LINE ( 'NONE', #160, #80 ) ;
#138 = ADVANCED_FACE ( 'NONE', ( #156 ), #242, .F. ) ;
#139 = EDGE_LOOP ( 'NONE', ( #48, #166, #11, #188 ) ) ;
#140 = ORIENTED_EDGE ( 'NONE', *, *, #77, .T. ) ;
#141 = CARTESIAN_POINT ( 'NONE',  ( 0.0000000000000000000, 8.741913579725642300E-015, 0.03749999999999871500 ) ) ;
#142 = AXIS2_PLACEMENT_3D ( 'NONE', #112, #152, #32 ) ;
#143 =( CONVERSION_BASED_UNIT ( 'INCH', #168 ) LENGTH_UNIT ( ) NAMED_UNIT ( #161 ) );
#144 = FILL_AREA_STYLE_COLOUR ( '', #176 ) ;
#145 = ORIENTED_EDGE ( 'NONE', *, *, #107, .T. ) ;
#146 = APPLICATION_PROTOCOL_DEFINITION ( 'draft international standard', 'automotive_design', 1998, #50 ) ;
#147 =( CONVERSION_BASED_UNIT ( 'INCH', #97 ) LENGTH_UNIT ( ) NAMED_UNIT ( #197 ) );
#148 = EDGE_LOOP ( 'NONE', ( #25, #179, #279, #247 ) ) ;
#149 = EDGE_CURVE ( 'NONE', #124, #170, #123, .T. ) ;
#150 = CARTESIAN_POINT ( 'NONE',  ( 0.4225819370371992600, 0.3000000000000204200, -0.03749999999999110300 ) ) ;
#151 = VECTOR ( 'NONE', #71, 39.37007874015748100 ) ;
#152 = DIRECTION ( 'NONE',  ( 7.238055178266621100E-016, -5.419199792802119900E-016, 1.000000000000000000 ) ) ;
#153 = AXIS2_PLACEMENT_3D ( 'NONE', #89, #167, #250 ) ;
#154 = DIRECTION ( 'NONE',  ( 7.238055178266621100E-016, -5.419199792802119900E-016, 1.000000000000000000 ) ) ;
#155 = ADVANCED_FACE ( 'NONE', ( #57, #40 ), #181, .F. ) ;
#156 = FACE_OUTER_BOUND ( 'NONE', #109, .T. ) ;
#157 = VECTOR ( 'NONE', #226, 39.37007874015748100 ) ;
#158 = VERTEX_POINT ( 'NONE', #221 ) ;
#159 = CARTESIAN_POINT ( 'NONE',  ( 1.539864963814592300, 8.741913579725642300E-015, 0.03749999999999803500 ) ) ;
#160 = CARTESIAN_POINT ( 'NONE',  ( 8.741913579725642300E-015, 1.000000000000010000, 0.03750000000000022100 ) ) ;
#161 = DIMENSIONAL_EXPONENTS ( 1.000000000000000000, 0.0000000000000000000, 0.0000000000000000000, 0.0000000000000000000, 0.0000000000000000000, 0.0000000000000000000, 0.0000000000000000000 ) ;
#162 = CARTESIAN_POINT ( 'NONE',  ( 0.0000000000000000000, 2.185478394931410600E-015, -0.03749999999999871500 ) ) ;
#163 = ORIENTED_EDGE ( 'NONE', *, *, #205, .T. ) ;
#164 = DIRECTION ( 'NONE',  ( -1.000000000000000000, 7.216449660063509600E-016, -7.050342886256036900E-016 ) ) ;
#165 = EDGE_CURVE ( 'NONE', #265, #229, #234, .T. ) ;
#166 = ORIENTED_EDGE ( 'NONE', *, *, #261, .T. ) ;
#167 = DIRECTION ( 'NONE',  ( 0.0000000000000000000, 0.0000000000000000000, 1.000000000000000000 ) ) ;
#168 = LENGTH_MEASURE_WITH_UNIT ( LENGTH_MEASURE( 0.02539999999999999900 ), #60 );
#169 = PRODUCT_DEFINITION ( 'UNKNOWN', '', #193, #39 ) ;
#170 = VERTEX_POINT ( 'NONE', #4 ) ;
#171 = DIRECTION ( 'NONE',  ( -0.5446390350150317500, -0.8386705679454210500, 2.786031282516025300E-017 ) ) ;
#172 = PRESENTATION_STYLE_ASSIGNMENT (( #79 ) ) ;
#173 = CARTESIAN_POINT ( 'NONE',  ( 0.5270819370372034100, 0.3000000000000203100, 0.03750000000000405800 ) ) ;
#174 = ORIENTED_EDGE ( 'NONE', *, *, #52, .T. ) ;
#175 = AXIS2_PLACEMENT_3D ( 'NONE', #220, #87, #202 ) ;
#176 = COLOUR_RGB ( '',0.7529411764705882200, 0.7529411764705882200, 0.7529411764705882200 ) ;
#177 = FILL_AREA_STYLE ('',( #144 ) ) ;
#178 = DIRECTION ( 'NONE',  ( -7.238055178266622100E-016, 5.419199792802118000E-016, -1.000000000000000000 ) ) ;
#179 = ORIENTED_EDGE ( 'NONE', *, *, #22, .F. ) ;
#180 = DIRECTION ( 'NONE',  ( -7.238055178266622100E-016, 5.419199792802119900E-016, -1.000000000000000000 ) ) ;
#181 = PLANE ( 'NONE',  #91 ) ;
#182 = DIRECTION ( 'NONE',  ( -7.238055178266621100E-016, 5.419199792802119900E-016, -1.000000000000000000 ) ) ;
#183 = CIRCLE ( 'NONE', #175, 0.1044999999999999400 ) ;
#184 = EDGE_CURVE ( 'NONE', #158, #239, #222, .T. ) ;
#185 = UNCERTAINTY_MEASURE_WITH_UNIT (LENGTH_MEASURE( 1.000000000000000100E-005 ), #82, 'distance_accuracy_value', 'NONE');
#186 = CARTESIAN_POINT ( 'NONE',  ( 0.6904736475417012600, 0.5516011703836333200, -0.03749999999999064500 ) ) ;
#187 = DIRECTION ( 'NONE',  ( -7.238055178266620200E-016, 5.419199792802119900E-016, -1.000000000000000000 ) ) ;
#188 = ORIENTED_EDGE ( 'NONE', *, *, #149, .F. ) ;
#189 = ORIENTED_EDGE ( 'NONE', *, *, #22, .T. ) ;
#190 = ADVANCED_FACE ( 'NONE', ( #68, #278 ), #120, .T. ) ;
#191 = CARTESIAN_POINT ( 'NONE',  ( 0.6904736475417186900, 0.5516011703836376500, 0.03749999999999803500 ) ) ;
#192 = CIRCLE ( 'NONE', #209, 0.3000000000000003200 ) ;
#193 = PRODUCT_DEFINITION_FORMATION_WITH_SPECIFIED_SOURCE ( 'ANY', '', #53, .NOT_KNOWN. ) ;
#194 =( NAMED_UNIT ( * ) PLANE_ANGLE_UNIT ( ) SI_UNIT ( $, .RADIAN. ) );
#195 = DIRECTION ( 'NONE',  ( 7.238055178266621100E-016, -5.419199792802119900E-016, 1.000000000000000000 ) ) ;
#196 = AXIS2_PLACEMENT_3D ( 'NONE', #267, #182, #51 ) ;
#197 = DIMENSIONAL_EXPONENTS ( 1.000000000000000000, 0.0000000000000000000, 0.0000000000000000000, 0.0000000000000000000, 0.0000000000000000000, 0.0000000000000000000, 0.0000000000000000000 ) ;
#198 = ORIENTED_EDGE ( 'NONE', *, *, #214, .T. ) ;
#199 = CARTESIAN_POINT ( 'NONE',  ( 0.5270819370371990800, 0.3000000000000115400, -0.03749999999999117900 ) ) ;
#200 = SURFACE_STYLE_FILL_AREA ( #177 ) ;
#201 =( NAMED_UNIT ( * ) PLANE_ANGLE_UNIT ( ) SI_UNIT ( $, .RADIAN. ) );
#202 = DIRECTION ( 'NONE',  ( -1.000000000000000000, 6.535521515943217600E-016, -6.943991610689668300E-016 ) ) ;
#203 = ORIENTED_EDGE ( 'NONE', *, *, #77, .F. ) ;
#204 = PRODUCT_DEFINITION_SHAPE ( 'NONE', 'NONE',  #169 ) ;
#205 = EDGE_CURVE ( 'NONE', #101, #268, #243, .T. ) ;
#206 = DIRECTION ( 'NONE',  ( -0.8386705679454210500, 0.5446390350150316400, -1.276756478318906900E-015 ) ) ;
#207 = SURFACE_SIDE_STYLE ('',( #200 ) ) ;
#208 = PRODUCT_RELATED_PRODUCT_CATEGORY ( 'part', '', ( #53 ) ) ;
#209 = AXIS2_PLACEMENT_3D ( 'NONE', #199, #63, #45 ) ;
#210 = DIRECTION ( 'NONE',  ( 1.000000000000000000, -6.535521515943217600E-016, 6.943991610689668300E-016 ) ) ;
#211 = ORIENTED_EDGE ( 'NONE', *, *, #165, .F. ) ;
#212 = ORIENTED_EDGE ( 'NONE', *, *, #227, .T. ) ;
#213 = DIRECTION ( 'NONE',  ( 0.8386705679454209400, -0.5446390350150316400, 1.276756478318906900E-015 ) ) ;
#214 = EDGE_CURVE ( 'NONE', #64, #110, #14, .T. ) ;
#215 = ADVANCED_FACE ( 'NONE', ( #263 ), #24, .T. ) ;
#216 =( LENGTH_UNIT ( ) NAMED_UNIT ( * ) SI_UNIT ( $, .METRE. ) );
#217 = CARTESIAN_POINT ( 'NONE',  ( 0.4225819370372035400, 0.3000000000000204200, 0.03750000000000413400 ) ) ;
#218 = CARTESIAN_POINT ( 'NONE',  ( 0.0000000000000000000, 8.741913579725642300E-015, 0.03749999999999871500 ) ) ;
#219 = FILL_AREA_STYLE ('',( #266 ) ) ;
#220 = CARTESIAN_POINT ( 'NONE',  ( 0.5270819370371990800, 0.3000000000000115400, -0.03749999999999117900 ) ) ;
#221 = CARTESIAN_POINT ( 'NONE',  ( 8.741913579725642300E-015, 1.000000000000010000, 0.03750000000000022100 ) ) ;
#222 = LINE ( 'NONE', #141, #286 ) ;
#223 = VERTEX_POINT ( 'NONE', #88 ) ;
#224 = AXIS2_PLACEMENT_3D ( 'NONE', #36, #171, #213 ) ;
#225 = CARTESIAN_POINT ( 'NONE',  ( 0.6904736475417186900, 0.5516011703836376500, 0.03749999999999803500 ) ) ;
#226 = DIRECTION ( 'NONE',  ( 6.106226635438346200E-016, -1.000000000000000000, 5.131010361882457100E-016 ) ) ;
#227 = EDGE_CURVE ( 'NONE', #229, #265, #183, .T. ) ;
#228 = VECTOR ( 'NONE', #180, 39.37007874015748100 ) ;
#229 = VERTEX_POINT ( 'NONE', #150 ) ;
#230 = LINE ( 'NONE', #49, #2 ) ;
#231 = DIRECTION ( 'NONE',  ( 6.106226635438346200E-016, -1.000000000000000000, 5.131010361882457100E-016 ) ) ;
#232 = DIRECTION ( 'NONE',  ( 1.000000000000000000, -6.535521515943217600E-016, 6.943991610689668300E-016 ) ) ;
#233 = DIRECTION ( 'NONE',  ( 1.000000000000000000, -7.216449660063509600E-016, 7.050342886256036900E-016 ) ) ;
#234 = CIRCLE ( 'NONE', #74, 0.1044999999999999400 ) ;
#235 = EDGE_LOOP ( 'NONE', ( #127, #140, #135, #35 ) ) ;
#236 = STYLED_ITEM ( 'NONE', ( #85 ), #273 ) ;
#237 = VECTOR ( 'NONE', #233, 39.37007874015748100 ) ;
#238 = CARTESIAN_POINT ( 'NONE',  ( 8.741913579725642300E-015, 1.000000000000010000, 0.03750000000000022100 ) ) ;
#239 = VERTEX_POINT ( 'NONE', #241 ) ;
#240 = ADVANCED_FACE ( 'NONE', ( #76 ), #46, .F. ) ;
#241 = CARTESIAN_POINT ( 'NONE',  ( 0.0000000000000000000, 8.741913579725642300E-015, 0.03749999999999871500 ) ) ;
#242 = PLANE ( 'NONE',  #59 ) ;
#243 = CIRCLE ( 'NONE', #119, 0.1044999999999999400 ) ;
#244 = EDGE_CURVE ( 'NONE', #110, #158, #130, .T. ) ;
#245 = EDGE_LOOP ( 'NONE', ( #29, #269, #18, #8 ) ) ;
#246 = CARTESIAN_POINT ( 'NONE',  ( 0.5270819370372034100, 0.3000000000000203100, 0.03750000000000405800 ) ) ;
#247 = ORIENTED_EDGE ( 'NONE', *, *, #122, .T. ) ;
#248 = DIRECTION ( 'NONE',  ( 7.238055178266621100E-016, -5.419199792802119900E-016, 1.000000000000000000 ) ) ;
#249 = VECTOR ( 'NONE', #84, 39.37007874015748100 ) ;
#250 = DIRECTION ( 'NONE',  ( 1.000000000000000000, 0.0000000000000000000, 0.0000000000000000000 ) ) ;
#251 = DIRECTION ( 'NONE',  ( 1.000000000000000000, -7.216449660063509600E-016, 7.050342886256036900E-016 ) ) ;
#252 = CARTESIAN_POINT ( 'NONE',  ( 0.5270819370371990800, 0.3000000000000115400, -0.03749999999999117900 ) ) ;
#253 = PRESENTATION_LAYER_ASSIGNMENT (  '', '', ( #236 ) ) ;
#254 = ORIENTED_EDGE ( 'NONE', *, *, #214, .F. ) ;
#255 = FACE_OUTER_BOUND ( 'NONE', #260, .T. ) ;
#256 = CARTESIAN_POINT ( 'NONE',  ( 0.6315819370371988900, 0.3000000000000202500, -0.03749999999999126300 ) ) ;
#257 = SHAPE_DEFINITION_REPRESENTATION ( #204, #81 ) ;
#258 = DIMENSIONAL_EXPONENTS ( 1.000000000000000000, 0.0000000000000000000, 0.0000000000000000000, 0.0000000000000000000, 0.0000000000000000000, 0.0000000000000000000, 0.0000000000000000000 ) ;
#259 = SURFACE_STYLE_FILL_AREA ( #219 ) ;
#260 = EDGE_LOOP ( 'NONE', ( #283, #212, #174, #163 ) ) ;
#261 = EDGE_CURVE ( 'NONE', #125, #223, #192, .T. ) ;
#262 = APPLICATION_CONTEXT ( 'automotive_design' ) ;
#263 = FACE_OUTER_BOUND ( 'NONE', #58, .T. ) ;
#264 = DIRECTION ( 'NONE',  ( 7.216449660063513600E-016, 1.000000000000000000, -5.963677630351324500E-016 ) ) ;
#265 = VERTEX_POINT ( 'NONE', #256 ) ;
#266 = FILL_AREA_STYLE_COLOUR ( '', #134 ) ;
#267 = CARTESIAN_POINT ( 'NONE',  ( 0.5270819370372034100, 0.3000000000000203100, 0.03750000000000405800 ) ) ;
#268 = VERTEX_POINT ( 'NONE', #217 ) ;
#269 = ORIENTED_EDGE ( 'NONE', *, *, #37, .T. ) ;
#270 = DIRECTION ( 'NONE',  ( -1.000000000000000000, 7.216449660063509600E-016, -7.050342886256036900E-016 ) ) ;
#271 = VECTOR ( 'NONE', #251, 39.37007874015748100 ) ;
#272 = MECHANICAL_DESIGN_GEOMETRIC_PRESENTATION_REPRESENTATION (  '', ( #236 ), #284 ) ;
#273 = MANIFOLD_SOLID_BREP ( '#10 Clearance Hole1', #285 ) ;
#274 = DIRECTION ( 'NONE',  ( 7.238055178266622100E-016, -5.419199792802119900E-016, 1.000000000000000000 ) ) ;
#275 = CARTESIAN_POINT ( 'NONE',  ( 0.5270819370372209500, 4.370956789862821100E-015, 0.03750000000000141400 ) ) ;
#276 = CARTESIAN_POINT ( 'NONE',  ( 0.5270819370372034100, 0.3000000000000203100, 0.03750000000000405800 ) ) ;
#277 = ADVANCED_FACE ( 'NONE', ( #280 ), #20, .F. ) ;
#278 = FACE_OUTER_BOUND ( 'NONE', #139, .T. ) ;
#279 = ORIENTED_EDGE ( 'NONE', *, *, #184, .F. ) ;
#280 = FACE_OUTER_BOUND ( 'NONE', #148, .T. ) ;
#281 = ORIENTED_EDGE ( 'NONE', *, *, #261, .F. ) ;
#282 = ORIENTED_EDGE ( 'NONE', *, *, #136, .T. ) ;
#283 = ORIENTED_EDGE ( 'NONE', *, *, #37, .F. ) ;
#284 =( GEOMETRIC_REPRESENTATION_CONTEXT ( 3 ) GLOBAL_UNCERTAINTY_ASSIGNED_CONTEXT ( ( #111 ) ) GLOBAL_UNIT_ASSIGNED_CONTEXT ( ( #147, #201, #43 ) ) REPRESENTATION_CONTEXT ( 'NONE', 'WORKASPACE' ) );
#285 = CLOSED_SHELL ( 'NONE', ( #105, #138, #240, #277, #155, #190, #215, #65 ) ) ;
#286 = VECTOR ( 'NONE', #231, 39.37007874015748100 ) ;
#287 = AXIS2_PLACEMENT_3D ( 'NONE', #96, #248, #117 ) ;
ENDSEC;
END-ISO-10303-21;
