ISO-10303-21;
HEADER;
FILE_DESCRIPTION (( 'STEP AP203' ),
    '1' );
FILE_NAME ('D020211-v1_aLIGO_SUS_HSTS_Magnet Holder Brace.STEP',
    '2010-07-06T18:16:11',
    ( 'Dwayne Giardina' ),
    ( 'CA Institute of Technology' ),
    'SwSTEP 2.0',
    'SolidWorks 2010',
    '' );
FILE_SCHEMA (( 'CONFIG_CONTROL_DESIGN' ));
ENDSEC;

DATA;
#1 = LINE ( 'NONE', #182, #4 ) ;
#2 = CIRCLE ( 'NONE', #351, 0.06424999999999986300 ) ;
#3 = VECTOR ( 'NONE', #206, 39.37007874015748100 ) ;
#4 = VECTOR ( 'NONE', #189, 39.37007874015748100 ) ;
#5 = CIRCLE ( 'NONE', #380, 0.06424999999999953000 ) ;
#6 = VECTOR ( 'NONE', #102, 39.37007874015748100 ) ;
#7 = CALENDAR_DATE ( 2010, 6, 7 ) ;
#8 = LOCAL_TIME ( 13, 16, 11.00000000000000000, #9 ) ;
#9 = COORDINATED_UNIVERSAL_TIME_OFFSET ( 6, 0, .BEHIND. ) ;
#10 = APPROVAL_PERSON_ORGANIZATION ( #33, #359, #162 ) ;
#11 = APPROVAL_DATE_TIME ( #43, #361 ) ;
#12 = COORDINATED_UNIVERSAL_TIME_OFFSET ( 6, 0, .BEHIND. ) ;
#13 = LOCAL_TIME ( 13, 16, 11.00000000000000000, #12 ) ;
#14 = PERSON_AND_ORGANIZATION ( #388, #52 ) ;
#15 = PERSON_AND_ORGANIZATION ( #388, #52 ) ;
#16 = PERSON_AND_ORGANIZATION ( #388, #52 ) ;
#17 = APPROVAL_DATE_TIME ( #24, #332 ) ;
#18 = APPROVAL_PERSON_ORGANIZATION ( #15, #332, #176 ) ;
#19 = COORDINATED_UNIVERSAL_TIME_OFFSET ( 6, 0, .BEHIND. ) ;
#20 = DATE_AND_TIME ( #21, #22 ) ;
#21 = CALENDAR_DATE ( 2010, 6, 7 ) ;
#22 = LOCAL_TIME ( 13, 16, 11.00000000000000000, #19 ) ;
#23 = CALENDAR_DATE ( 2010, 6, 7 ) ;
#24 = DATE_AND_TIME ( #7, #8 ) ;
#25 = APPROVAL_PERSON_ORGANIZATION ( #41, #361, #205 ) ;
#26 = VECTOR ( 'NONE', #197, 39.37007874015748100 ) ;
#27 = CIRCLE ( 'NONE', #344, 0.06424999999999953000 ) ;
#28 = DATE_AND_TIME ( #23, #13 ) ;
#29 = APPROVAL_DATE_TIME ( #28, #359 ) ;
#30 = PERSON_AND_ORGANIZATION ( #388, #52 ) ;
#31 = LINE ( 'NONE', #191, #71 ) ;
#32 = COORDINATED_UNIVERSAL_TIME_OFFSET ( 6, 0, .BEHIND. ) ;
#33 = PERSON_AND_ORGANIZATION ( #388, #52 ) ;
#34 = CALENDAR_DATE ( 2010, 6, 7 ) ;
#35 = LOCAL_TIME ( 13, 16, 11.00000000000000000, #32 ) ;
#36 = PERSON_AND_ORGANIZATION ( #388, #52 ) ;
#37 = PERSON_AND_ORGANIZATION ( #388, #52 ) ;
#38 = CIRCLE ( 'NONE', #386, 0.06424999999999986300 ) ;
#39 = VECTOR ( 'NONE', #98, 39.37007874015748100 ) ;
#40 = COORDINATED_UNIVERSAL_TIME_OFFSET ( 6, 0, .BEHIND. ) ;
#41 = PERSON_AND_ORGANIZATION ( #388, #52 ) ;
#42 = DATE_AND_TIME ( #34, #35 ) ;
#43 = DATE_AND_TIME ( #44, #45 ) ;
#44 = CALENDAR_DATE ( 2010, 6, 7 ) ;
#45 = LOCAL_TIME ( 13, 16, 11.00000000000000000, #40 ) ;
#46 = VECTOR ( 'NONE', #196, 39.37007874015748100 ) ;
#47 = LINE ( 'NONE', #151, #68 ) ;
#48 = VECTOR ( 'NONE', #122, 39.37007874015748100 ) ;
#49 = LINE ( 'NONE', #84, #55 ) ;
#50 = LINE ( 'NONE', #226, #26 ) ;
#51 = LENGTH_MEASURE_WITH_UNIT ( LENGTH_MEASURE( 0.02539999999999999900 ), #207 );
#52 = ORGANIZATION ( 'UNSPECIFIED', 'UNSPECIFIED', '' ) ;
#53 = SHAPE_DEFINITION_REPRESENTATION ( #77, #81 ) ;
#54 =( GEOMETRIC_REPRESENTATION_CONTEXT ( 3 ) GLOBAL_UNCERTAINTY_ASSIGNED_CONTEXT ( ( #80 ) ) GLOBAL_UNIT_ASSIGNED_CONTEXT ( ( #203, #89, #161 ) ) REPRESENTATION_CONTEXT ( 'NONE', 'WORKASPACE' ) );
#55 = VECTOR ( 'NONE', #172, 39.37007874015748100 ) ;
#56 = VECTOR ( 'NONE', #99, 39.37007874015748100 ) ;
#57 = CIRCLE ( 'NONE', #341, 0.06424999999999986300 ) ;
#58 = LINE ( 'NONE', #140, #48 ) ;
#59 = LINE ( 'NONE', #147, #39 ) ;
#60 = VECTOR ( 'NONE', #195, 39.37007874015748100 ) ;
#61 = LINE ( 'NONE', #152, #6 ) ;
#62 = FACE_OUTER_BOUND ( 'NONE', #271, .T. ) ;
#63 = VECTOR ( 'NONE', #219, 39.37007874015748100 ) ;
#64 = LINE ( 'NONE', #85, #56 ) ;
#65 = CIRCLE ( 'NONE', #333, 0.06424999999999953000 ) ;
#66 = CIRCLE ( 'NONE', #379, 0.06424999999999986300 ) ;
#67 = VECTOR ( 'NONE', #155, 39.37007874015748100 ) ;
#68 = VECTOR ( 'NONE', #163, 39.37007874015748100 ) ;
#69 = LINE ( 'NONE', #132, #60 ) ;
#70 = LINE ( 'NONE', #82, #75 ) ;
#71 = VECTOR ( 'NONE', #188, 39.37007874015748100 ) ;
#72 = LINE ( 'NONE', #224, #67 ) ;
#73 = LINE ( 'NONE', #126, #63 ) ;
#74 = CIRCLE ( 'NONE', #374, 0.06424999999999953000 ) ;
#75 = VECTOR ( 'NONE', #139, 39.37007874015748100 ) ;
#76 = DESIGN_CONTEXT ( 'detailed design', #113, 'design' ) ;
#77 = PRODUCT_DEFINITION_SHAPE ( 'NONE', 'NONE',  #354 ) ;
#78 = DIMENSIONAL_EXPONENTS ( 1.000000000000000000, 0.0000000000000000000, 0.0000000000000000000, 0.0000000000000000000, 0.0000000000000000000, 0.0000000000000000000, 0.0000000000000000000 ) ;
#79 = MANIFOLD_SOLID_BREP ( '#4 Clearance Hole1', #301 ) ;
#80 = UNCERTAINTY_MEASURE_WITH_UNIT (LENGTH_MEASURE( 1.000000000000000100E-005 ), #203, 'distance_accuracy_value', 'NONE');
#81 = ADVANCED_BREP_SHAPE_REPRESENTATION ( 'D020211-v1_aLIGO_SUS_HSTS_Magnet Holder Brace', ( #79, #352 ), #54 ) ;
#82 = CARTESIAN_POINT ( 'NONE',  ( -0.2724999999999999100, 0.1949999999999999800, -0.5869999999999999700 ) ) ;
#83 = CARTESIAN_POINT ( 'NONE',  ( 0.2725000000000002400, -0.005000000000000007900, -0.4114999999999999800 ) ) ;
#84 = CARTESIAN_POINT ( 'NONE',  ( -0.2724999999999999100, 0.1949999999999999800, 0.0000000000000000000 ) ) ;
#85 = CARTESIAN_POINT ( 'NONE',  ( -0.2724999999999999100, 0.1949999999999999800, 0.0000000000000000000 ) ) ;
#86 = DATE_TIME_ROLE ( 'classification_date' ) ;
#87 = DIRECTION ( 'NONE',  ( 0.0000000000000000000, 0.0000000000000000000, -1.000000000000000000 ) ) ;
#88 = DIRECTION ( 'NONE',  ( 0.0000000000000000000, 0.0000000000000000000, -1.000000000000000000 ) ) ;
#89 =( NAMED_UNIT ( * ) PLANE_ANGLE_UNIT ( ) SI_UNIT ( $, .RADIAN. ) );
#90 = CARTESIAN_POINT ( 'NONE',  ( 0.2725000000000001900, -0.1950000000000000300, -0.5869999999999999700 ) ) ;
#91 = DIRECTION ( 'NONE',  ( 0.0000000000000000000, 0.0000000000000000000, -1.000000000000000000 ) ) ;
#92 = DIRECTION ( 'NONE',  ( 1.000000000000000000, -0.0000000000000000000, -0.0000000000000000000 ) ) ;
#93 = CARTESIAN_POINT ( 'NONE',  ( 0.2725000000000001900, -0.005000000000000007900, -0.4114999999999999800 ) ) ;
#94 = PLANE ( 'NONE',  #357 ) ;
#95 = CARTESIAN_POINT ( 'NONE',  ( 0.0000000000000000000, 0.0000000000000000000, 0.0000000000000000000 ) ) ;
#96 = CARTESIAN_POINT ( 'NONE',  ( -0.2724999999999999100, -0.005000000000000000100, -0.1112500000000001100 ) ) ;
#97 = APPLICATION_PROTOCOL_DEFINITION ( 'international standard', 'config_control_design', 1994, #113 ) ;
#98 = DIRECTION ( 'NONE',  ( 1.000000000000000000, -0.0000000000000000000, -0.0000000000000000000 ) ) ;
#99 = DIRECTION ( 'NONE',  ( 1.751184611323245600E-016, -1.000000000000000000, 0.0000000000000000000 ) ) ;
#100 = CARTESIAN_POINT ( 'NONE',  ( 0.2725000000000002400, -0.005000000000000007900, -0.2397499999999995200 ) ) ;
#101 = CARTESIAN_POINT ( 'NONE',  ( -0.2724999999999998500, -0.1950000000000000300, -0.5869999999999999700 ) ) ;
#102 = DIRECTION ( 'NONE',  ( 1.000000000000000000, -0.0000000000000000000, -0.0000000000000000000 ) ) ;
#103 = VERTEX_POINT ( 'NONE', #177 ) ;
#104 = VERTEX_POINT ( 'NONE', #144 ) ;
#105 = PLANE ( 'NONE',  #382 ) ;
#106 = CARTESIAN_POINT ( 'NONE',  ( -0.2724999999999999100, 0.1949999999999999800, -0.5869999999999999700 ) ) ;
#107 = DIRECTION ( 'NONE',  ( -1.751184611323245900E-016, 1.000000000000000000, 0.0000000000000000000 ) ) ;
#108 = DIRECTION ( 'NONE',  ( 0.0000000000000000000, 0.0000000000000000000, 1.000000000000000000 ) ) ;
#109 = PLANE ( 'NONE',  #358 ) ;
#110 = PERSON_AND_ORGANIZATION_ROLE ( 'design_supplier' ) ;
#111 = VERTEX_POINT ( 'NONE', #194 ) ;
#112 = DIRECTION ( 'NONE',  ( 0.0000000000000000000, 0.0000000000000000000, -1.000000000000000000 ) ) ;
#113 = APPLICATION_CONTEXT ( 'configuration controlled 3d designs of mechanical parts and assemblies' ) ;
#114 = DIRECTION ( 'NONE',  ( 0.0000000000000000000, 0.0000000000000000000, -1.000000000000000000 ) ) ;
#115 = DIRECTION ( 'NONE',  ( 1.000000000000000000, -0.0000000000000000000, -0.0000000000000000000 ) ) ;
#116 = CARTESIAN_POINT ( 'NONE',  ( 0.2725000000000001300, 0.1949999999999999800, -0.5869999999999999700 ) ) ;
#117 = APPROVAL_STATUS ( 'not_yet_approved' ) ;
#118 = VERTEX_POINT ( 'NONE', #211 ) ;
#119 = CARTESIAN_POINT ( 'NONE',  ( -0.2724999999999999100, -0.005000000000000000100, -0.3472500000000001100 ) ) ;
#120 = MECHANICAL_CONTEXT ( 'NONE', #134, 'mechanical' ) ;
#121 = VERTEX_POINT ( 'NONE', #96 ) ;
#122 = DIRECTION ( 'NONE',  ( 1.000000000000000000, 0.0000000000000000000, 0.0000000000000000000 ) ) ;
#123 = PERSON_AND_ORGANIZATION_ROLE ( 'creator' ) ;
#124 = SECURITY_CLASSIFICATION_LEVEL ( 'unclassified' ) ;
#125 = DIRECTION ( 'NONE',  ( 1.751184611323245900E-016, -1.000000000000000000, 0.0000000000000000000 ) ) ;
#126 = CARTESIAN_POINT ( 'NONE',  ( -0.2724999999999999100, 0.1949999999999999800, -0.5869999999999999700 ) ) ;
#127 = CARTESIAN_POINT ( 'NONE',  ( 0.2725000000000002400, -0.005000000000000007900, -0.4757499999999995100 ) ) ;
#128 = DIRECTION ( 'NONE',  ( 0.0000000000000000000, 0.0000000000000000000, -1.000000000000000000 ) ) ;
#129 = CARTESIAN_POINT ( 'NONE',  ( 0.2725000000000001900, -0.1950000000000000300, -0.5869999999999999700 ) ) ;
#130 = CARTESIAN_POINT ( 'NONE',  ( -0.2724999999999999100, -0.005000000000000007900, -0.1754999999999999900 ) ) ;
#131 = CARTESIAN_POINT ( 'NONE',  ( 0.2725000000000001900, -0.1950000000000000300, -0.5869999999999999700 ) ) ;
#132 = CARTESIAN_POINT ( 'NONE',  ( 0.2725000000000001900, -0.005000000000000007900, -0.4757499999999996700 ) ) ;
#133 = CARTESIAN_POINT ( 'NONE',  ( 0.2725000000000001300, 0.1949999999999999800, 0.0000000000000000000 ) ) ;
#134 = APPLICATION_CONTEXT ( 'configuration controlled 3d designs of mechanical parts and assemblies' ) ;
#135 = VERTEX_POINT ( 'NONE', #145 ) ;
#136 = APPROVAL_STATUS ( 'not_yet_approved' ) ;
#137 = DIRECTION ( 'NONE',  ( 0.0000000000000000000, 0.0000000000000000000, -1.000000000000000000 ) ) ;
#138 = CARTESIAN_POINT ( 'NONE',  ( -0.2724999999999999100, -0.005000000000000007900, -0.1754999999999999900 ) ) ;
#139 = DIRECTION ( 'NONE',  ( 0.0000000000000000000, 0.0000000000000000000, 1.000000000000000000 ) ) ;
#140 = CARTESIAN_POINT ( 'NONE',  ( -0.2724999999999998500, -0.1950000000000000300, -0.5869999999999999700 ) ) ;
#141 = PERSON_AND_ORGANIZATION_ROLE ( 'design_owner' ) ;
#142 = DIRECTION ( 'NONE',  ( 1.000000000000000000, 1.751184611323245900E-016, -0.0000000000000000000 ) ) ;
#143 = VERTEX_POINT ( 'NONE', #119 ) ;
#144 = CARTESIAN_POINT ( 'NONE',  ( 0.2725000000000002400, -0.005000000000000000100, -0.3472500000000004500 ) ) ;
#145 = CARTESIAN_POINT ( 'NONE',  ( 0.2725000000000002400, -0.005000000000000000100, -0.1112500000000004500 ) ) ;
#146 = PLANE ( 'NONE',  #363 ) ;
#147 = CARTESIAN_POINT ( 'NONE',  ( 0.2725000000000001900, -0.005000000000000000100, -0.1112500000000002800 ) ) ;
#148 = PLANE ( 'NONE',  #368 ) ;
#149 = DIRECTION ( 'NONE',  ( 1.000000000000000000, 0.0000000000000000000, 0.0000000000000000000 ) ) ;
#150 = DIRECTION ( 'NONE',  ( 0.0000000000000000000, 0.0000000000000000000, -1.000000000000000000 ) ) ;
#151 = CARTESIAN_POINT ( 'NONE',  ( 0.2725000000000001900, -0.005000000000000000100, -0.3472500000000002300 ) ) ;
#152 = CARTESIAN_POINT ( 'NONE',  ( 0.2725000000000001900, -0.005000000000000007900, -0.2397499999999996900 ) ) ;
#153 = CARTESIAN_POINT ( 'NONE',  ( 0.2725000000000002400, -0.005000000000000007900, -0.4114999999999999800 ) ) ;
#154 = DATE_TIME_ROLE ( 'creation_date' ) ;
#155 = DIRECTION ( 'NONE',  ( 1.000000000000000000, 0.0000000000000000000, 0.0000000000000000000 ) ) ;
#156 = CARTESIAN_POINT ( 'NONE',  ( -0.2724999999999999100, -0.005000000000000007900, -0.4757499999999998400 ) ) ;
#157 = VERTEX_POINT ( 'NONE', #156 ) ;
#158 = DIRECTION ( 'NONE',  ( 1.000000000000000000, -0.0000000000000000000, -0.0000000000000000000 ) ) ;
#159 = DIRECTION ( 'NONE',  ( 1.000000000000000000, -0.0000000000000000000, -0.0000000000000000000 ) ) ;
#160 = CARTESIAN_POINT ( 'NONE',  ( 0.2725000000000001900, -0.005000000000000007900, -0.1754999999999999900 ) ) ;
#161 =( NAMED_UNIT ( * ) SI_UNIT ( $, .STERADIAN. ) SOLID_ANGLE_UNIT ( ) );
#162 = APPROVAL_ROLE ( '' ) ;
#163 = DIRECTION ( 'NONE',  ( 1.000000000000000000, -0.0000000000000000000, -0.0000000000000000000 ) ) ;
#164 = CARTESIAN_POINT ( 'NONE',  ( 0.2725000000000001900, -0.005000000000000007900, -0.4114999999999999800 ) ) ;
#165 = DIRECTION ( 'NONE',  ( -0.0000000000000000000, 0.0000000000000000000, 1.000000000000000000 ) ) ;
#166 = DIRECTION ( 'NONE',  ( 1.000000000000000000, -0.0000000000000000000, -0.0000000000000000000 ) ) ;
#167 = CARTESIAN_POINT ( 'NONE',  ( 0.2725000000000001300, 0.1949999999999999800, 0.0000000000000000000 ) ) ;
#168 = VERTEX_POINT ( 'NONE', #131 ) ;
#169 = PERSON_AND_ORGANIZATION_ROLE ( 'creator' ) ;
#170 = VERTEX_POINT ( 'NONE', #218 ) ;
#171 = DIRECTION ( 'NONE',  ( 1.000000000000000000, -0.0000000000000000000, -0.0000000000000000000 ) ) ;
#172 = DIRECTION ( 'NONE',  ( -1.000000000000000000, -0.0000000000000000000, -0.0000000000000000000 ) ) ;
#173 = DIRECTION ( 'NONE',  ( 1.000000000000000000, 0.0000000000000000000, 0.0000000000000000000 ) ) ;
#174 = CARTESIAN_POINT ( 'NONE',  ( -0.2724999999999999100, -0.005000000000000007900, -0.4114999999999999800 ) ) ;
#175 = DIRECTION ( 'NONE',  ( 1.000000000000000000, 0.0000000000000000000, 0.0000000000000000000 ) ) ;
#176 = APPROVAL_ROLE ( '' ) ;
#177 = CARTESIAN_POINT ( 'NONE',  ( 0.2725000000000001900, -0.1950000000000000300, 0.0000000000000000000 ) ) ;
#178 = DIRECTION ( 'NONE',  ( -1.751184611323245600E-016, 1.000000000000000000, -0.0000000000000000000 ) ) ;
#179 = CARTESIAN_POINT ( 'NONE',  ( -0.2724999999999999100, 0.1949999999999999800, -0.5869999999999999700 ) ) ;
#180 = VERTEX_POINT ( 'NONE', #221 ) ;
#181 = DIRECTION ( 'NONE',  ( 0.0000000000000000000, 0.0000000000000000000, -1.000000000000000000 ) ) ;
#182 = CARTESIAN_POINT ( 'NONE',  ( -0.2724999999999999100, 0.1949999999999999800, -0.5869999999999999700 ) ) ;
#183 = VERTEX_POINT ( 'NONE', #100 ) ;
#184 = DIRECTION ( 'NONE',  ( 0.0000000000000000000, 1.000000000000000000, 0.0000000000000000000 ) ) ;
#185 = CARTESIAN_POINT ( 'NONE',  ( 0.2725000000000002400, -0.005000000000000007900, -0.1754999999999999900 ) ) ;
#186 = DIRECTION ( 'NONE',  ( 1.000000000000000000, -0.0000000000000000000, -0.0000000000000000000 ) ) ;
#187 = VERTEX_POINT ( 'NONE', #167 ) ;
#188 = DIRECTION ( 'NONE',  ( 0.0000000000000000000, 0.0000000000000000000, 1.000000000000000000 ) ) ;
#189 = DIRECTION ( 'NONE',  ( -1.000000000000000000, -0.0000000000000000000, -0.0000000000000000000 ) ) ;
#190 = CARTESIAN_POINT ( 'NONE',  ( 0.2725000000000001900, -0.1950000000000000300, 0.0000000000000000000 ) ) ;
#191 = CARTESIAN_POINT ( 'NONE',  ( -0.2724999999999998500, -0.1950000000000000300, -0.5869999999999999700 ) ) ;
#192 = DIRECTION ( 'NONE',  ( 1.000000000000000000, -0.0000000000000000000, -0.0000000000000000000 ) ) ;
#193 = DIRECTION ( 'NONE',  ( 0.0000000000000000000, -1.000000000000000000, 0.0000000000000000000 ) ) ;
#194 = CARTESIAN_POINT ( 'NONE',  ( -0.2724999999999999100, 0.1949999999999999800, -0.5869999999999999700 ) ) ;
#195 = DIRECTION ( 'NONE',  ( 1.000000000000000000, -0.0000000000000000000, -0.0000000000000000000 ) ) ;
#196 = DIRECTION ( 'NONE',  ( 0.0000000000000000000, 0.0000000000000000000, 1.000000000000000000 ) ) ;
#197 = DIRECTION ( 'NONE',  ( 0.0000000000000000000, 0.0000000000000000000, 1.000000000000000000 ) ) ;
#198 = DIRECTION ( 'NONE',  ( 1.000000000000000000, -0.0000000000000000000, -0.0000000000000000000 ) ) ;
#199 = VERTEX_POINT ( 'NONE', #127 ) ;
#200 = CARTESIAN_POINT ( 'NONE',  ( 0.2725000000000001300, 0.1949999999999999800, -0.5869999999999999700 ) ) ;
#201 = CARTESIAN_POINT ( 'NONE',  ( -0.2724999999999998500, -0.1950000000000000300, -0.5869999999999999700 ) ) ;
#202 = DIRECTION ( 'NONE',  ( 0.0000000000000000000, 0.0000000000000000000, -1.000000000000000000 ) ) ;
#203 =( CONVERSION_BASED_UNIT ( 'INCH', #51 ) LENGTH_UNIT ( ) NAMED_UNIT ( #78 ) );
#204 = CARTESIAN_POINT ( 'NONE',  ( -0.2724999999999999100, -0.005000000000000007900, -0.4114999999999999800 ) ) ;
#205 = APPROVAL_ROLE ( '' ) ;
#206 = DIRECTION ( 'NONE',  ( -1.751184611323245600E-016, 1.000000000000000000, -0.0000000000000000000 ) ) ;
#207 =( LENGTH_UNIT ( ) NAMED_UNIT ( * ) SI_UNIT ( $, .METRE. ) );
#208 = DIRECTION ( 'NONE',  ( 0.0000000000000000000, 0.0000000000000000000, -1.000000000000000000 ) ) ;
#209 = VERTEX_POINT ( 'NONE', #217 ) ;
#210 = PERSON_AND_ORGANIZATION_ROLE ( 'classification_officer' ) ;
#211 = CARTESIAN_POINT ( 'NONE',  ( -0.2724999999999998500, -0.1950000000000000300, 0.0000000000000000000 ) ) ;
#212 = DIRECTION ( 'NONE',  ( 0.0000000000000000000, 0.0000000000000000000, -1.000000000000000000 ) ) ;
#213 = DIRECTION ( 'NONE',  ( 0.0000000000000000000, -0.0000000000000000000, -1.000000000000000000 ) ) ;
#214 = PLANE ( 'NONE',  #339 ) ;
#215 = DIRECTION ( 'NONE',  ( 1.000000000000000000, -0.0000000000000000000, -0.0000000000000000000 ) ) ;
#216 = VERTEX_POINT ( 'NONE', #101 ) ;
#217 = CARTESIAN_POINT ( 'NONE',  ( -0.2724999999999999100, -0.005000000000000007900, -0.2397499999999998500 ) ) ;
#218 = CARTESIAN_POINT ( 'NONE',  ( -0.2724999999999999100, 0.1949999999999999800, 0.0000000000000000000 ) ) ;
#219 = DIRECTION ( 'NONE',  ( 1.751184611323245600E-016, -1.000000000000000000, 0.0000000000000000000 ) ) ;
#220 = CARTESIAN_POINT ( 'NONE',  ( 0.2725000000000001900, -0.005000000000000007900, -0.1754999999999999900 ) ) ;
#221 = CARTESIAN_POINT ( 'NONE',  ( 0.2725000000000001300, 0.1949999999999999800, -0.5869999999999999700 ) ) ;
#222 = CARTESIAN_POINT ( 'NONE',  ( 0.2725000000000002400, -0.005000000000000007900, -0.1754999999999999900 ) ) ;
#223 = DIRECTION ( 'NONE',  ( -1.000000000000000000, -1.751184611323245900E-016, 0.0000000000000000000 ) ) ;
#224 = CARTESIAN_POINT ( 'NONE',  ( -0.2724999999999998500, -0.1950000000000000300, 0.0000000000000000000 ) ) ;
#225 = DIRECTION ( 'NONE',  ( -0.0000000000000000000, 0.0000000000000000000, 1.000000000000000000 ) ) ;
#226 = CARTESIAN_POINT ( 'NONE',  ( 0.2725000000000001300, 0.1949999999999999800, -0.5869999999999999700 ) ) ;
#227 = DIRECTION ( 'NONE',  ( 1.000000000000000000, -0.0000000000000000000, -0.0000000000000000000 ) ) ;
#228 = APPROVAL_STATUS ( 'not_yet_approved' ) ;
#229 = DIRECTION ( 'NONE',  ( 1.000000000000000000, -0.0000000000000000000, -0.0000000000000000000 ) ) ;
#230 = APPLICATION_PROTOCOL_DEFINITION ( 'international standard', 'config_control_design', 1994, #134 ) ;
#231 = DIRECTION ( 'NONE',  ( 0.0000000000000000000, -0.0000000000000000000, 1.000000000000000000 ) ) ;
#232 = FACE_BOUND ( 'NONE', #277, .T. ) ;
#233 = ORIENTED_EDGE ( 'NONE', *, *, #364, .F. ) ;
#234 = ORIENTED_EDGE ( 'NONE', *, *, #364, .T. ) ;
#235 = ORIENTED_EDGE ( 'NONE', *, *, #378, .F. ) ;
#236 = ORIENTED_EDGE ( 'NONE', *, *, #375, .T. ) ;
#237 = ORIENTED_EDGE ( 'NONE', *, *, #377, .F. ) ;
#238 = FACE_OUTER_BOUND ( 'NONE', #289, .T. ) ;
#239 = EDGE_LOOP ( 'NONE', ( #255, #281, #272, #300 ) ) ;
#240 = CYLINDRICAL_SURFACE ( 'NONE', #345, 0.06424999999999973800 ) ;
#241 = ORIENTED_EDGE ( 'NONE', *, *, #370, .T. ) ;
#242 = ORIENTED_EDGE ( 'NONE', *, *, #347, .F. ) ;
#243 = ORIENTED_EDGE ( 'NONE', *, *, #370, .F. ) ;
#244 = ORIENTED_EDGE ( 'NONE', *, *, #337, .T. ) ;
#245 = EDGE_LOOP ( 'NONE', ( #288, #293, #254, #273 ) ) ;
#246 = LINE ( 'NONE', #116, #315 ) ;
#247 = ORIENTED_EDGE ( 'NONE', *, *, #373, .T. ) ;
#248 = EDGE_LOOP ( 'NONE', ( #284, #294, #295, #236 ) ) ;
#249 = FACE_BOUND ( 'NONE', #291, .T. ) ;
#250 = FACE_BOUND ( 'NONE', #269, .T. ) ;
#251 = FACE_OUTER_BOUND ( 'NONE', #239, .T. ) ;
#252 = ORIENTED_EDGE ( 'NONE', *, *, #372, .T. ) ;
#253 = FACE_OUTER_BOUND ( 'NONE', #286, .T. ) ;
#254 = ORIENTED_EDGE ( 'NONE', *, *, #366, .F. ) ;
#255 = ORIENTED_EDGE ( 'NONE', *, *, #346, .F. ) ;
#256 = FACE_OUTER_BOUND ( 'NONE', #299, .T. ) ;
#257 = EDGE_LOOP ( 'NONE', ( #292, #270, #267, #298 ) ) ;
#258 = LINE ( 'NONE', #133, #3 ) ;
#259 = ORIENTED_EDGE ( 'NONE', *, *, #356, .F. ) ;
#260 = ORIENTED_EDGE ( 'NONE', *, *, #384, .F. ) ;
#261 = ORIENTED_EDGE ( 'NONE', *, *, #383, .T. ) ;
#262 = ORIENTED_EDGE ( 'NONE', *, *, #355, .F. ) ;
#263 = FACE_OUTER_BOUND ( 'NONE', #245, .T. ) ;
#264 = ORIENTED_EDGE ( 'NONE', *, *, #367, .T. ) ;
#265 = ORIENTED_EDGE ( 'NONE', *, *, #327, .T. ) ;
#266 = ORIENTED_EDGE ( 'NONE', *, *, #346, .T. ) ;
#267 = ORIENTED_EDGE ( 'NONE', *, *, #362, .T. ) ;
#268 = EDGE_LOOP ( 'NONE', ( #243, #235, #261, #247 ) ) ;
#269 = EDGE_LOOP ( 'NONE', ( #314, #266 ) ) ;
#270 = ORIENTED_EDGE ( 'NONE', *, *, #335, .F. ) ;
#271 = EDGE_LOOP ( 'NONE', ( #304, #309, #302, #282 ) ) ;
#272 = ORIENTED_EDGE ( 'NONE', *, *, #329, .T. ) ;
#273 = ORIENTED_EDGE ( 'NONE', *, *, #383, .F. ) ;
#274 = EDGE_LOOP ( 'NONE', ( #242, #237, #280, #283 ) ) ;
#275 = ORIENTED_EDGE ( 'NONE', *, *, #326, .T. ) ;
#276 = CYLINDRICAL_SURFACE ( 'NONE', #328, 0.06424999999999973800 ) ;
#277 = EDGE_LOOP ( 'NONE', ( #265, #234 ) ) ;
#278 = FACE_OUTER_BOUND ( 'NONE', #268, .T. ) ;
#279 = CYLINDRICAL_SURFACE ( 'NONE', #353, 0.06424999999999969600 ) ;
#280 = ORIENTED_EDGE ( 'NONE', *, *, #365, .T. ) ;
#281 = ORIENTED_EDGE ( 'NONE', *, *, #347, .T. ) ;
#282 = ORIENTED_EDGE ( 'NONE', *, *, #335, .T. ) ;
#283 = ORIENTED_EDGE ( 'NONE', *, *, #384, .T. ) ;
#284 = ORIENTED_EDGE ( 'NONE', *, *, #372, .F. ) ;
#285 = ORIENTED_EDGE ( 'NONE', *, *, #343, .F. ) ;
#286 = EDGE_LOOP ( 'NONE', ( #233, #252, #287, #262 ) ) ;
#287 = ORIENTED_EDGE ( 'NONE', *, *, #349, .T. ) ;
#288 = ORIENTED_EDGE ( 'NONE', *, *, #326, .F. ) ;
#289 = EDGE_LOOP ( 'NONE', ( #285, #259, #275, #311 ) ) ;
#290 = FACE_BOUND ( 'NONE', #297, .T. ) ;
#291 = EDGE_LOOP ( 'NONE', ( #312, #306 ) ) ;
#292 = ORIENTED_EDGE ( 'NONE', *, *, #367, .F. ) ;
#293 = ORIENTED_EDGE ( 'NONE', *, *, #362, .F. ) ;
#294 = ORIENTED_EDGE ( 'NONE', *, *, #327, .F. ) ;
#295 = ORIENTED_EDGE ( 'NONE', *, *, #355, .T. ) ;
#296 = CYLINDRICAL_SURFACE ( 'NONE', #334, 0.06424999999999969600 ) ;
#297 = EDGE_LOOP ( 'NONE', ( #260, #308 ) ) ;
#298 = ORIENTED_EDGE ( 'NONE', *, *, #356, .T. ) ;
#299 = EDGE_LOOP ( 'NONE', ( #303, #241, #244, #264 ) ) ;
#300 = ORIENTED_EDGE ( 'NONE', *, *, #365, .F. ) ;
#301 = CLOSED_SHELL ( 'NONE', ( #320, #318, #316, #317, #325, #321, #324, #322, #323, #319 ) ) ;
#302 = ORIENTED_EDGE ( 'NONE', *, *, #366, .T. ) ;
#303 = ORIENTED_EDGE ( 'NONE', *, *, #343, .T. ) ;
#304 = ORIENTED_EDGE ( 'NONE', *, *, #337, .F. ) ;
#305 = FACE_OUTER_BOUND ( 'NONE', #274, .T. ) ;
#306 = ORIENTED_EDGE ( 'NONE', *, *, #349, .F. ) ;
#307 = LINE ( 'NONE', #90, #46 ) ;
#308 = ORIENTED_EDGE ( 'NONE', *, *, #329, .F. ) ;
#309 = ORIENTED_EDGE ( 'NONE', *, *, #373, .F. ) ;
#310 = FACE_OUTER_BOUND ( 'NONE', #248, .T. ) ;
#311 = ORIENTED_EDGE ( 'NONE', *, *, #378, .T. ) ;
#312 = ORIENTED_EDGE ( 'NONE', *, *, #375, .F. ) ;
#313 = FACE_OUTER_BOUND ( 'NONE', #257, .T. ) ;
#314 = ORIENTED_EDGE ( 'NONE', *, *, #377, .T. ) ;
#315 = VECTOR ( 'NONE', #178, 39.37007874015748100 ) ;
#316 = ADVANCED_FACE ( 'NONE', ( #290, #249, #238 ), #148, .T. ) ;
#317 = ADVANCED_FACE ( 'NONE', ( #313 ), #105, .T. ) ;
#318 = ADVANCED_FACE ( 'NONE', ( #253 ), #276, .F. ) ;
#319 = ADVANCED_FACE ( 'NONE', ( #305 ), #296, .F. ) ;
#320 = ADVANCED_FACE ( 'NONE', ( #251 ), #279, .F. ) ;
#321 = ADVANCED_FACE ( 'NONE', ( #278 ), #214, .T. ) ;
#322 = ADVANCED_FACE ( 'NONE', ( #256 ), #146, .T. ) ;
#323 = ADVANCED_FACE ( 'NONE', ( #310 ), #240, .F. ) ;
#324 = ADVANCED_FACE ( 'NONE', ( #263 ), #94, .F. ) ;
#325 = ADVANCED_FACE ( 'NONE', ( #250, #232, #62 ), #109, .T. ) ;
#326 = EDGE_CURVE ( 'NONE', #168, #180, #246, .T. ) ;
#327 = EDGE_CURVE ( 'NONE', #157, #143, #57, .T. ) ;
#328 = AXIS2_PLACEMENT_3D ( 'NONE', #93, #115, #88 ) ;
#329 = EDGE_CURVE ( 'NONE', #135, #183, #65, .T. ) ;
#330 = SECURITY_CLASSIFICATION ( '', '', #124 ) ;
#331 = CC_DESIGN_APPROVAL ( #332, ( #354 ) ) ;
#332 = APPROVAL ( #228, 'UNSPECIFIED' ) ;
#333 = AXIS2_PLACEMENT_3D ( 'NONE', #185, #92, #137 ) ;
#334 = AXIS2_PLACEMENT_3D ( 'NONE', #160, #171, #112 ) ;
#335 = EDGE_CURVE ( 'NONE', #216, #118, #31, .T. ) ;
#336 = CC_DESIGN_PERSON_AND_ORGANIZATION_ASSIGNMENT ( #36, #110, ( #385 ) ) ;
#337 = EDGE_CURVE ( 'NONE', #170, #118, #64, .T. ) ;
#338 = CC_DESIGN_DATE_AND_TIME_ASSIGNMENT ( #20, #154, ( #354 ) ) ;
#339 = AXIS2_PLACEMENT_3D ( 'NONE', #179, #184, #231 ) ;
#340 = CC_DESIGN_APPROVAL ( #359, ( #385 ) ) ;
#341 = AXIS2_PLACEMENT_3D ( 'NONE', #174, #227, #150 ) ;
#342 = CC_DESIGN_APPROVAL ( #361, ( #330 ) ) ;
#343 = EDGE_CURVE ( 'NONE', #103, #187, #258, .T. ) ;
#344 = AXIS2_PLACEMENT_3D ( 'NONE', #153, #159, #128 ) ;
#345 = AXIS2_PLACEMENT_3D ( 'NONE', #164, #186, #114 ) ;
#346 = EDGE_CURVE ( 'NONE', #121, #209, #66, .T. ) ;
#347 = EDGE_CURVE ( 'NONE', #121, #135, #59, .T. ) ;
#348 = CC_DESIGN_SECURITY_CLASSIFICATION ( #330, ( #385 ) ) ;
#349 = EDGE_CURVE ( 'NONE', #104, #199, #74, .T. ) ;
#350 = CC_DESIGN_PERSON_AND_ORGANIZATION_ASSIGNMENT ( #16, #123, ( #354 ) ) ;
#351 = AXIS2_PLACEMENT_3D ( 'NONE', #138, #215, #208 ) ;
#352 = AXIS2_PLACEMENT_3D ( 'NONE', #95, #108, #173 ) ;
#353 = AXIS2_PLACEMENT_3D ( 'NONE', #220, #158, #181 ) ;
#354 = PRODUCT_DEFINITION ( 'UNKNOWN', '', #385, #76 ) ;
#355 = EDGE_CURVE ( 'NONE', #157, #199, #69, .T. ) ;
#356 = EDGE_CURVE ( 'NONE', #168, #103, #307, .T. ) ;
#357 = AXIS2_PLACEMENT_3D ( 'NONE', #129, #165, #175 ) ;
#358 = AXIS2_PLACEMENT_3D ( 'NONE', #106, #223, #125 ) ;
#359 = APPROVAL ( #136, 'UNSPECIFIED' ) ;
#360 = CC_DESIGN_PERSON_AND_ORGANIZATION_ASSIGNMENT ( #14, #141, ( #387 ) ) ;
#361 = APPROVAL ( #117, 'UNSPECIFIED' ) ;
#362 = EDGE_CURVE ( 'NONE', #216, #168, #58, .T. ) ;
#363 = AXIS2_PLACEMENT_3D ( 'NONE', #190, #225, #149 ) ;
#364 = EDGE_CURVE ( 'NONE', #143, #157, #38, .T. ) ;
#365 = EDGE_CURVE ( 'NONE', #209, #183, #61, .T. ) ;
#366 = EDGE_CURVE ( 'NONE', #111, #216, #73, .T. ) ;
#367 = EDGE_CURVE ( 'NONE', #118, #103, #72, .T. ) ;
#368 = AXIS2_PLACEMENT_3D ( 'NONE', #200, #142, #107 ) ;
#369 = CC_DESIGN_PERSON_AND_ORGANIZATION_ASSIGNMENT ( #30, #169, ( #385 ) ) ;
#370 = EDGE_CURVE ( 'NONE', #187, #170, #49, .T. ) ;
#371 = PRODUCT_RELATED_PRODUCT_CATEGORY ( 'detail', '', ( #387 ) ) ;
#372 = EDGE_CURVE ( 'NONE', #143, #104, #47, .T. ) ;
#373 = EDGE_CURVE ( 'NONE', #111, #170, #70, .T. ) ;
#374 = AXIS2_PLACEMENT_3D ( 'NONE', #83, #192, #202 ) ;
#375 = EDGE_CURVE ( 'NONE', #199, #104, #27, .T. ) ;
#376 = CC_DESIGN_PERSON_AND_ORGANIZATION_ASSIGNMENT ( #37, #210, ( #330 ) ) ;
#377 = EDGE_CURVE ( 'NONE', #209, #121, #2, .T. ) ;
#378 = EDGE_CURVE ( 'NONE', #180, #187, #50, .T. ) ;
#379 = AXIS2_PLACEMENT_3D ( 'NONE', #130, #166, #87 ) ;
#380 = AXIS2_PLACEMENT_3D ( 'NONE', #222, #229, #91 ) ;
#381 = CC_DESIGN_DATE_AND_TIME_ASSIGNMENT ( #42, #86, ( #330 ) ) ;
#382 = AXIS2_PLACEMENT_3D ( 'NONE', #201, #193, #213 ) ;
#383 = EDGE_CURVE ( 'NONE', #180, #111, #1, .T. ) ;
#384 = EDGE_CURVE ( 'NONE', #183, #135, #5, .T. ) ;
#385 = PRODUCT_DEFINITION_FORMATION_WITH_SPECIFIED_SOURCE ( 'ANY', '', #387, .NOT_KNOWN. ) ;
#386 = AXIS2_PLACEMENT_3D ( 'NONE', #204, #198, #212 ) ;
#387 = PRODUCT ( 'D020211-v1_aLIGO_SUS_HSTS_Magnet Holder Brace', 'D020211-v1_aLIGO_SUS_HSTS_Magnet Holder Brace', '', ( #120 ) ) ;
#388 = PERSON ( 'UNSPECIFIED', 'UNSPECIFIED', 'UNSPECIFIED', ('UNSPECIFIED'), ('UNSPECIFIED'), ('UNSPECIFIED') ) ;
ENDSEC;
END-ISO-10303-21;
