ISO-10303-21;
HEADER;
FILE_DESCRIPTION (( 'STEP AP203' ),
    '1' );
FILE_NAME ('D020676-v1_aLIGO_SUS_HSTS_Roll Insert, T-Section.STEP',
    '2010-07-06T17:53:56',
    ( 'Dwayne Giardina' ),
    ( 'CA Institute of Technology' ),
    'SwSTEP 2.0',
    'SolidWorks 2010',
    '' );
FILE_SCHEMA (( 'CONFIG_CONTROL_DESIGN' ));
ENDSEC;

DATA;
#1 = DIMENSIONAL_EXPONENTS ( 1.000000000000000000, 0.0000000000000000000, 0.0000000000000000000, 0.0000000000000000000, 0.0000000000000000000, 0.0000000000000000000, 0.0000000000000000000 ) ;
#2 = ADVANCED_FACE ( 'NONE', ( #108 ), #54, .F. ) ;
#3 = ADVANCED_FACE ( 'NONE', ( #165 ), #169, .T. ) ;
#4 = ADVANCED_FACE ( 'NONE', ( #128 ), #164, .T. ) ;
#5 = ADVANCED_FACE ( 'NONE', ( #140 ), #17, .T. ) ;
#6 = DESIGN_CONTEXT ( 'detailed design', #30, 'design' ) ;
#7 = PRODUCT_DEFINITION_SHAPE ( 'NONE', 'NONE',  #84 ) ;
#8 = UNCERTAINTY_MEASURE_WITH_UNIT (LENGTH_MEASURE( 1.000000000000000100E-005 ), #21, 'distance_accuracy_value', 'NONE');
#9 = ADVANCED_BREP_SHAPE_REPRESENTATION ( 'D020676-v1_aLIGO_SUS_HSTS_Roll Insert, T-Section', ( #10, #92 ), #111 ) ;
#10 = MANIFOLD_SOLID_BREP ( 'Base-Extrude', #121 ) ;
#11 = CARTESIAN_POINT ( 'NONE',  ( 0.3745000000000000000, 0.0000000000000000000, 0.0000000000000000000 ) ) ;
#12 = VERTEX_POINT ( 'NONE', #59 ) ;
#13 = CARTESIAN_POINT ( 'NONE',  ( 0.0000000000000000000, 0.0000000000000000000, -1.970000000000000000 ) ) ;
#14 = DIRECTION ( 'NONE',  ( 0.0000000000000000000, 0.0000000000000000000, 1.000000000000000000 ) ) ;
#15 = DIRECTION ( 'NONE',  ( 0.0000000000000000000, 0.0000000000000000000, 1.000000000000000000 ) ) ;
#16 = DIRECTION ( 'NONE',  ( 0.0000000000000000000, 0.0000000000000000000, 1.000000000000000000 ) ) ;
#17 = PLANE ( 'NONE',  #105 ) ;
#18 = APPROVAL_ROLE ( '' ) ;
#19 = DIRECTION ( 'NONE',  ( 1.000000000000000000, 0.0000000000000000000, 0.0000000000000000000 ) ) ;
#20 = DIRECTION ( 'NONE',  ( 0.0000000000000000000, 0.0000000000000000000, 1.000000000000000000 ) ) ;
#21 =( CONVERSION_BASED_UNIT ( 'INCH', #144 ) LENGTH_UNIT ( ) NAMED_UNIT ( #1 ) );
#22 =( NAMED_UNIT ( * ) PLANE_ANGLE_UNIT ( ) SI_UNIT ( $, .RADIAN. ) );
#23 =( NAMED_UNIT ( * ) SI_UNIT ( $, .STERADIAN. ) SOLID_ANGLE_UNIT ( ) );
#24 =( LENGTH_UNIT ( ) NAMED_UNIT ( * ) SI_UNIT ( $, .METRE. ) );
#25 = CARTESIAN_POINT ( 'NONE',  ( -0.3745000000000000000, 4.586302262806837500E-017, -1.970000000000000000 ) ) ;
#26 = DIRECTION ( 'NONE',  ( 0.0000000000000000000, 0.0000000000000000000, 1.000000000000000000 ) ) ;
#27 = CARTESIAN_POINT ( 'NONE',  ( 0.0000000000000000000, 0.0000000000000000000, -1.970000000000000000 ) ) ;
#28 = APPLICATION_CONTEXT ( 'configuration controlled 3d designs of mechanical parts and assemblies' ) ;
#29 = APPLICATION_PROTOCOL_DEFINITION ( 'international standard', 'config_control_design', 1994, #28 ) ;
#30 = APPLICATION_CONTEXT ( 'configuration controlled 3d designs of mechanical parts and assemblies' ) ;
#31 = APPLICATION_PROTOCOL_DEFINITION ( 'international standard', 'config_control_design', 1994, #30 ) ;
#32 = PERSON_AND_ORGANIZATION_ROLE ( 'design_owner' ) ;
#33 = MECHANICAL_CONTEXT ( 'NONE', #28, 'mechanical' ) ;
#34 = DIRECTION ( 'NONE',  ( 1.000000000000000000, 0.0000000000000000000, 0.0000000000000000000 ) ) ;
#35 = DIRECTION ( 'NONE',  ( 0.0000000000000000000, 0.0000000000000000000, 1.000000000000000000 ) ) ;
#36 = CARTESIAN_POINT ( 'NONE',  ( 0.0000000000000000000, 0.0000000000000000000, 0.0000000000000000000 ) ) ;
#37 = CARTESIAN_POINT ( 'NONE',  ( 0.0000000000000000000, 0.0000000000000000000, -1.970000000000000000 ) ) ;
#38 = CARTESIAN_POINT ( 'NONE',  ( -0.3745000000000000000, 4.586302262806837500E-017, -1.970000000000000000 ) ) ;
#39 = CARTESIAN_POINT ( 'NONE',  ( -0.3745000000000000000, 4.586302262806837500E-017, 0.0000000000000000000 ) ) ;
#40 = APPROVAL_STATUS ( 'not_yet_approved' ) ;
#41 = APPROVAL_ROLE ( '' ) ;
#42 = APPROVAL_STATUS ( 'not_yet_approved' ) ;
#43 = DATE_TIME_ROLE ( 'creation_date' ) ;
#44 = DIRECTION ( 'NONE',  ( 1.000000000000000000, 0.0000000000000000000, -0.0000000000000000000 ) ) ;
#45 = APPROVAL_ROLE ( '' ) ;
#46 = CARTESIAN_POINT ( 'NONE',  ( 0.3745000000000000000, 0.0000000000000000000, -1.970000000000000000 ) ) ;
#47 = DIRECTION ( 'NONE',  ( 0.0000000000000000000, 0.0000000000000000000, 1.000000000000000000 ) ) ;
#48 = PERSON_AND_ORGANIZATION_ROLE ( 'creator' ) ;
#49 = PERSON_AND_ORGANIZATION_ROLE ( 'creator' ) ;
#50 = PERSON_AND_ORGANIZATION_ROLE ( 'classification_officer' ) ;
#51 = DATE_TIME_ROLE ( 'classification_date' ) ;
#52 = DIRECTION ( 'NONE',  ( 1.000000000000000000, 0.0000000000000000000, 0.0000000000000000000 ) ) ;
#53 = PERSON_AND_ORGANIZATION_ROLE ( 'design_supplier' ) ;
#54 = PLANE ( 'NONE',  #99 ) ;
#55 = VERTEX_POINT ( 'NONE', #11 ) ;
#56 = VERTEX_POINT ( 'NONE', #39 ) ;
#57 = VERTEX_POINT ( 'NONE', #38 ) ;
#58 = DIRECTION ( 'NONE',  ( 1.000000000000000000, 0.0000000000000000000, 0.0000000000000000000 ) ) ;
#59 = CARTESIAN_POINT ( 'NONE',  ( 0.3745000000000000000, 0.0000000000000000000, -1.970000000000000000 ) ) ;
#60 = CARTESIAN_POINT ( 'NONE',  ( 0.0000000000000000000, 0.0000000000000000000, 0.0000000000000000000 ) ) ;
#61 = DIRECTION ( 'NONE',  ( 0.0000000000000000000, 0.0000000000000000000, 1.000000000000000000 ) ) ;
#62 = DIRECTION ( 'NONE',  ( 1.000000000000000000, 0.0000000000000000000, 0.0000000000000000000 ) ) ;
#63 = CARTESIAN_POINT ( 'NONE',  ( 0.0000000000000000000, 0.0000000000000000000, -1.970000000000000000 ) ) ;
#64 = APPROVAL_STATUS ( 'not_yet_approved' ) ;
#65 = DIRECTION ( 'NONE',  ( 1.000000000000000000, 0.0000000000000000000, 0.0000000000000000000 ) ) ;
#66 = DIRECTION ( 'NONE',  ( 0.0000000000000000000, 0.0000000000000000000, 1.000000000000000000 ) ) ;
#67 = DIRECTION ( 'NONE',  ( 0.0000000000000000000, 0.0000000000000000000, 1.000000000000000000 ) ) ;
#68 = DIRECTION ( 'NONE',  ( 1.000000000000000000, 0.0000000000000000000, -0.0000000000000000000 ) ) ;
#69 = CARTESIAN_POINT ( 'NONE',  ( 0.0000000000000000000, 0.0000000000000000000, 0.0000000000000000000 ) ) ;
#70 = SECURITY_CLASSIFICATION_LEVEL ( 'unclassified' ) ;
#71 = DIRECTION ( 'NONE',  ( 1.000000000000000000, 0.0000000000000000000, 0.0000000000000000000 ) ) ;
#72 = CARTESIAN_POINT ( 'NONE',  ( 0.0000000000000000000, 0.0000000000000000000, 0.0000000000000000000 ) ) ;
#73 = CARTESIAN_POINT ( 'NONE',  ( 0.0000000000000000000, 0.0000000000000000000, -1.970000000000000000 ) ) ;
#74 = DIRECTION ( 'NONE',  ( 0.0000000000000000000, 0.0000000000000000000, 1.000000000000000000 ) ) ;
#75 = PRODUCT_RELATED_PRODUCT_CATEGORY ( 'detail', '', ( #177 ) ) ;
#76 = CC_DESIGN_PERSON_AND_ORGANIZATION_ASSIGNMENT ( #151, #48, ( #84 ) ) ;
#77 = SECURITY_CLASSIFICATION ( '', '', #70 ) ;
#78 = EDGE_CURVE ( 'NONE', #57, #56, #160, .T. ) ;
#79 = EDGE_CURVE ( 'NONE', #57, #12, #143, .T. ) ;
#80 = APPROVAL ( #42, 'UNSPECIFIED' ) ;
#81 = AXIS2_PLACEMENT_3D ( 'NONE', #37, #67, #52 ) ;
#82 = CC_DESIGN_DATE_AND_TIME_ASSIGNMENT ( #149, #43, ( #84 ) ) ;
#83 = AXIS2_PLACEMENT_3D ( 'NONE', #60, #74, #71 ) ;
#84 = PRODUCT_DEFINITION ( 'UNKNOWN', '', #106, #6 ) ;
#85 = CC_DESIGN_SECURITY_CLASSIFICATION ( #77, ( #106 ) ) ;
#86 = EDGE_CURVE ( 'NONE', #12, #55, #161, .T. ) ;
#87 = CC_DESIGN_PERSON_AND_ORGANIZATION_ASSIGNMENT ( #119, #49, ( #106 ) ) ;
#88 = AXIS2_PLACEMENT_3D ( 'NONE', #73, #66, #65 ) ;
#89 = EDGE_CURVE ( 'NONE', #56, #55, #153, .T. ) ;
#90 = APPROVAL ( #64, 'UNSPECIFIED' ) ;
#91 = CC_DESIGN_PERSON_AND_ORGANIZATION_ASSIGNMENT ( #174, #53, ( #106 ) ) ;
#92 = AXIS2_PLACEMENT_3D ( 'NONE', #36, #35, #34 ) ;
#93 = CC_DESIGN_DATE_AND_TIME_ASSIGNMENT ( #126, #51, ( #77 ) ) ;
#94 = AXIS2_PLACEMENT_3D ( 'NONE', #63, #14, #62 ) ;
#95 = AXIS2_PLACEMENT_3D ( 'NONE', #72, #20, #19 ) ;
#96 = CC_DESIGN_PERSON_AND_ORGANIZATION_ASSIGNMENT ( #131, #32, ( #177 ) ) ;
#97 = CC_DESIGN_PERSON_AND_ORGANIZATION_ASSIGNMENT ( #145, #50, ( #77 ) ) ;
#98 = EDGE_CURVE ( 'NONE', #55, #56, #176, .T. ) ;
#99 = AXIS2_PLACEMENT_3D ( 'NONE', #27, #61, #68 ) ;
#100 = EDGE_CURVE ( 'NONE', #12, #57, #124, .T. ) ;
#101 = CC_DESIGN_APPROVAL ( #90, ( #77 ) ) ;
#102 = CC_DESIGN_APPROVAL ( #107, ( #106 ) ) ;
#103 = AXIS2_PLACEMENT_3D ( 'NONE', #13, #26, #58 ) ;
#104 = CC_DESIGN_APPROVAL ( #80, ( #84 ) ) ;
#105 = AXIS2_PLACEMENT_3D ( 'NONE', #69, #47, #44 ) ;
#106 = PRODUCT_DEFINITION_FORMATION_WITH_SPECIFIED_SOURCE ( 'ANY', '', #177, .NOT_KNOWN. ) ;
#107 = APPROVAL ( #40, 'UNSPECIFIED' ) ;
#108 = FACE_OUTER_BOUND ( 'NONE', #147, .T. ) ;
#109 = LOCAL_TIME ( 12, 53, 55.00000000000000000, #137 ) ;
#110 = ORIENTED_EDGE ( 'NONE', *, *, #86, .F. ) ;
#111 =( GEOMETRIC_REPRESENTATION_CONTEXT ( 3 ) GLOBAL_UNCERTAINTY_ASSIGNED_CONTEXT ( ( #8 ) ) GLOBAL_UNIT_ASSIGNED_CONTEXT ( ( #21, #22, #23 ) ) REPRESENTATION_CONTEXT ( 'NONE', 'WORKASPACE' ) );
#112 = COORDINATED_UNIVERSAL_TIME_OFFSET ( 6, 0, .BEHIND. ) ;
#113 = ORIENTED_EDGE ( 'NONE', *, *, #89, .F. ) ;
#114 = APPROVAL_DATE_TIME ( #175, #107 ) ;
#115 = CALENDAR_DATE ( 2010, 6, 7 ) ;
#116 = ORIENTED_EDGE ( 'NONE', *, *, #89, .T. ) ;
#117 = ORIENTED_EDGE ( 'NONE', *, *, #78, .T. ) ;
#118 = APPROVAL_DATE_TIME ( #162, #90 ) ;
#119 = PERSON_AND_ORGANIZATION ( #178, #159 ) ;
#120 = APPROVAL_DATE_TIME ( #134, #80 ) ;
#121 = CLOSED_SHELL ( 'NONE', ( #3, #4, #2, #5 ) ) ;
#122 = SHAPE_DEFINITION_REPRESENTATION ( #7, #9 ) ;
#123 = ORIENTED_EDGE ( 'NONE', *, *, #100, .F. ) ;
#124 = CIRCLE ( 'NONE', #88, 0.3745000000000000000 ) ;
#125 = EDGE_LOOP ( 'NONE', ( #171, #139, #154, #113 ) ) ;
#126 = DATE_AND_TIME ( #163, #157 ) ;
#127 = ORIENTED_EDGE ( 'NONE', *, *, #98, .F. ) ;
#128 = FACE_OUTER_BOUND ( 'NONE', #125, .T. ) ;
#129 = COORDINATED_UNIVERSAL_TIME_OFFSET ( 6, 0, .BEHIND. ) ;
#130 = ORIENTED_EDGE ( 'NONE', *, *, #98, .T. ) ;
#131 = PERSON_AND_ORGANIZATION ( #178, #159 ) ;
#132 = CALENDAR_DATE ( 2010, 6, 7 ) ;
#133 = APPROVAL_PERSON_ORGANIZATION ( #146, #107, #41 ) ;
#134 = DATE_AND_TIME ( #115, #170 ) ;
#135 = CALENDAR_DATE ( 2010, 6, 7 ) ;
#136 = VECTOR ( 'NONE', #16, 39.37007874015748100 ) ;
#137 = COORDINATED_UNIVERSAL_TIME_OFFSET ( 6, 0, .BEHIND. ) ;
#138 = PERSON_AND_ORGANIZATION ( #178, #159 ) ;
#139 = ORIENTED_EDGE ( 'NONE', *, *, #79, .T. ) ;
#140 = FACE_OUTER_BOUND ( 'NONE', #150, .T. ) ;
#141 = PERSON_AND_ORGANIZATION ( #178, #159 ) ;
#142 = ORIENTED_EDGE ( 'NONE', *, *, #79, .F. ) ;
#143 = CIRCLE ( 'NONE', #94, 0.3745000000000000000 ) ;
#144 = LENGTH_MEASURE_WITH_UNIT ( LENGTH_MEASURE( 0.02539999999999999900 ), #24 );
#145 = PERSON_AND_ORGANIZATION ( #178, #159 ) ;
#146 = PERSON_AND_ORGANIZATION ( #178, #159 ) ;
#147 = EDGE_LOOP ( 'NONE', ( #123, #142 ) ) ;
#148 = COORDINATED_UNIVERSAL_TIME_OFFSET ( 6, 0, .BEHIND. ) ;
#149 = DATE_AND_TIME ( #135, #158 ) ;
#150 = EDGE_LOOP ( 'NONE', ( #130, #116 ) ) ;
#151 = PERSON_AND_ORGANIZATION ( #178, #159 ) ;
#152 = CALENDAR_DATE ( 2010, 6, 7 ) ;
#153 = CIRCLE ( 'NONE', #83, 0.3745000000000000000 ) ;
#154 = ORIENTED_EDGE ( 'NONE', *, *, #86, .T. ) ;
#155 = APPROVAL_PERSON_ORGANIZATION ( #138, #80, #45 ) ;
#156 = EDGE_LOOP ( 'NONE', ( #168, #117, #127, #110 ) ) ;
#157 = LOCAL_TIME ( 12, 53, 55.00000000000000000, #148 ) ;
#158 = LOCAL_TIME ( 12, 53, 55.00000000000000000, #112 ) ;
#159 = ORGANIZATION ( 'UNSPECIFIED', 'UNSPECIFIED', '' ) ;
#160 = LINE ( 'NONE', #25, #173 ) ;
#161 = LINE ( 'NONE', #46, #136 ) ;
#162 = DATE_AND_TIME ( #132, #109 ) ;
#163 = CALENDAR_DATE ( 2010, 6, 7 ) ;
#164 = CYLINDRICAL_SURFACE ( 'NONE', #81, 0.3745000000000000000 ) ;
#165 = FACE_OUTER_BOUND ( 'NONE', #156, .T. ) ;
#166 = LOCAL_TIME ( 12, 53, 55.00000000000000000, #172 ) ;
#167 = APPROVAL_PERSON_ORGANIZATION ( #141, #90, #18 ) ;
#168 = ORIENTED_EDGE ( 'NONE', *, *, #100, .T. ) ;
#169 = CYLINDRICAL_SURFACE ( 'NONE', #103, 0.3745000000000000000 ) ;
#170 = LOCAL_TIME ( 12, 53, 55.00000000000000000, #129 ) ;
#171 = ORIENTED_EDGE ( 'NONE', *, *, #78, .F. ) ;
#172 = COORDINATED_UNIVERSAL_TIME_OFFSET ( 6, 0, .BEHIND. ) ;
#173 = VECTOR ( 'NONE', #15, 39.37007874015748100 ) ;
#174 = PERSON_AND_ORGANIZATION ( #178, #159 ) ;
#175 = DATE_AND_TIME ( #152, #166 ) ;
#176 = CIRCLE ( 'NONE', #95, 0.3745000000000000000 ) ;
#177 = PRODUCT ( 'D020676-v1_aLIGO_SUS_HSTS_Roll Insert, T-Section', 'D020676-v1_aLIGO_SUS_HSTS_Roll Insert, T-Section', '', ( #33 ) ) ;
#178 = PERSON ( 'UNSPECIFIED', 'UNSPECIFIED', 'UNSPECIFIED', ('UNSPECIFIED'), ('UNSPECIFIED'), ('UNSPECIFIED') ) ;
ENDSEC;
END-ISO-10303-21;
