ISO-10303-21;
HEADER;
FILE_DESCRIPTION (( 'STEP AP203' ),
    '1' );
FILE_NAME ('D1001686-v1_aLIGO_SUS_HSTS_Replacement Weight, Upper Mass, HSTS.STEP',
    '2010-07-08T19:41:15',
    ( 'Dwayne Giardina' ),
    ( 'CA Institute of Technology' ),
    'SwSTEP 2.0',
    'SolidWorks 2010',
    '' );
FILE_SCHEMA (( 'CONFIG_CONTROL_DESIGN' ));
ENDSEC;

DATA;
#1 = EDGE_CURVE ( 'NONE', #360, #345, #56, .T. ) ;
#2 = AXIS2_PLACEMENT_3D ( 'NONE', #378, #373, #374 ) ;
#3 = EDGE_CURVE ( 'NONE', #357, #333, #73, .T. ) ;
#4 = EDGE_CURVE ( 'NONE', #365, #362, #143, .T. ) ;
#5 = AXIS2_PLACEMENT_3D ( 'NONE', #264, #218, #228 ) ;
#6 = EDGE_CURVE ( 'NONE', #376, #357, #149, .T. ) ;
#7 = AXIS2_PLACEMENT_3D ( 'NONE', #342, #350, #349 ) ;
#8 = EDGE_CURVE ( 'NONE', #366, #363, #147, .T. ) ;
#9 = EDGE_CURVE ( 'NONE', #362, #332, #148, .T. ) ;
#10 = EDGE_CURVE ( 'NONE', #361, #366, #52, .T. ) ;
#11 = EDGE_CURVE ( 'NONE', #359, #360, #85, .T. ) ;
#12 = EDGE_CURVE ( 'NONE', #363, #366, #79, .T. ) ;
#13 = AXIS2_PLACEMENT_3D ( 'NONE', #330, #327, #328 ) ;
#14 = EDGE_CURVE ( 'NONE', #345, #332, #174, .T. ) ;
#15 = EDGE_CURVE ( 'NONE', #364, #363, #169, .T. ) ;
#16 = AXIS2_PLACEMENT_3D ( 'NONE', #336, #337, #338 ) ;
#17 = EDGE_CURVE ( 'NONE', #364, #361, #118, .T. ) ;
#18 = AXIS2_PLACEMENT_3D ( 'NONE', #387, #386, #346 ) ;
#19 = EDGE_CURVE ( 'NONE', #333, #358, #142, .T. ) ;
#20 = EDGE_CURVE ( 'NONE', #367, #375, #146, .T. ) ;
#21 = EDGE_CURVE ( 'NONE', #362, #367, #112, .T. ) ;
#22 = EDGE_CURVE ( 'NONE', #365, #345, #90, .T. ) ;
#23 = EDGE_CURVE ( 'NONE', #367, #359, #138, .T. ) ;
#24 = EDGE_CURVE ( 'NONE', #361, #364, #123, .T. ) ;
#25 = EDGE_CURVE ( 'NONE', #359, #365, #167, .T. ) ;
#26 = EDGE_CURVE ( 'NONE', #358, #333, #83, .T. ) ;
#27 = EDGE_CURVE ( 'NONE', #357, #376, #103, .T. ) ;
#28 = EDGE_CURVE ( 'NONE', #376, #358, #175, .T. ) ;
#29 = AXIS2_PLACEMENT_3D ( 'NONE', #265, #261, #223 ) ;
#30 = AXIS2_PLACEMENT_3D ( 'NONE', #371, #372, #370 ) ;
#31 = EDGE_CURVE ( 'NONE', #332, #375, #100, .T. ) ;
#32 = AXIS2_PLACEMENT_3D ( 'NONE', #292, #220, #238 ) ;
#33 = AXIS2_PLACEMENT_3D ( 'NONE', #339, #344, #329 ) ;
#34 = EDGE_CURVE ( 'NONE', #375, #360, #76, .T. ) ;
#35 = AXIS2_PLACEMENT_3D ( 'NONE', #248, #247, #243 ) ;
#36 = AXIS2_PLACEMENT_3D ( 'NONE', #325, #226, #294 ) ;
#37 = AXIS2_PLACEMENT_3D ( 'NONE', #227, #245, #233 ) ;
#38 = AXIS2_PLACEMENT_3D ( 'NONE', #268, #262, #250 ) ;
#39 = FACE_BOUND ( 'NONE', #104, .T. ) ;
#40 = FACE_BOUND ( 'NONE', #69, .T. ) ;
#41 = FACE_OUTER_BOUND ( 'NONE', #164, .T. ) ;
#42 = VECTOR ( 'NONE', #353, 39.37007874015748100 ) ;
#43 = FACE_OUTER_BOUND ( 'NONE', #140, .T. ) ;
#44 = VECTOR ( 'NONE', #347, 39.37007874015748100 ) ;
#45 = VECTOR ( 'NONE', #383, 39.37007874015748100 ) ;
#46 = EDGE_LOOP ( 'NONE', ( #171, #156, #322, #119 ) ) ;
#47 = FACE_BOUND ( 'NONE', #145, .T. ) ;
#48 = ORIENTED_EDGE ( 'NONE', *, *, #19, .F. ) ;
#49 = ORIENTED_EDGE ( 'NONE', *, *, #10, .F. ) ;
#50 = ORIENTED_EDGE ( 'NONE', *, *, #6, .T. ) ;
#51 = VECTOR ( 'NONE', #377, 39.37007874015748100 ) ;
#52 = LINE ( 'NONE', #368, #84 ) ;
#53 = CYLINDRICAL_SURFACE ( 'NONE', #38, 0.05799999999999996800 ) ;
#54 = ORIENTED_EDGE ( 'NONE', *, *, #34, .F. ) ;
#55 = VECTOR ( 'NONE', #381, 39.37007874015748100 ) ;
#56 = LINE ( 'NONE', #334, #55 ) ;
#57 = FACE_OUTER_BOUND ( 'NONE', #46, .T. ) ;
#58 = CALENDAR_DATE ( 2010, 8, 7 ) ;
#59 = ORIENTED_EDGE ( 'NONE', *, *, #19, .T. ) ;
#60 = ORIENTED_EDGE ( 'NONE', *, *, #31, .T. ) ;
#61 = PERSON_AND_ORGANIZATION ( #216, #99 ) ;
#62 = DATE_AND_TIME ( #131, #130 ) ;
#63 = PERSON_AND_ORGANIZATION ( #216, #99 ) ;
#64 = PERSON_AND_ORGANIZATION ( #216, #99 ) ;
#65 = CALENDAR_DATE ( 2010, 8, 7 ) ;
#66 = DATE_AND_TIME ( #65, #113 ) ;
#67 = APPROVAL_DATE_TIME ( #66, #192 ) ;
#68 = VECTOR ( 'NONE', #379, 39.37007874015748100 ) ;
#69 = EDGE_LOOP ( 'NONE', ( #305, #111 ) ) ;
#70 = EDGE_LOOP ( 'NONE', ( #50, #109 ) ) ;
#71 = EDGE_LOOP ( 'NONE', ( #315, #308, #59, #323 ) ) ;
#72 = CLOSED_SHELL ( 'NONE', ( #211, #208, #206, #212, #214, #213, #207, #210, #215, #209 ) ) ;
#73 = LINE ( 'NONE', #335, #68 ) ;
#74 = ORIENTED_EDGE ( 'NONE', *, *, #20, .T. ) ;
#75 = ORIENTED_EDGE ( 'NONE', *, *, #23, .T. ) ;
#76 = LINE ( 'NONE', #236, #168 ) ;
#77 = VECTOR ( 'NONE', #331, 39.37007874015748100 ) ;
#78 = VECTOR ( 'NONE', #343, 39.37007874015748100 ) ;
#79 = CIRCLE ( 'NONE', #18, 0.05799999999999996800 ) ;
#80 = CYLINDRICAL_SURFACE ( 'NONE', #29, 0.05799999999999996800 ) ;
#81 = APPROVAL_DATE_TIME ( #62, #194 ) ;
#82 = FACE_OUTER_BOUND ( 'NONE', #97, .T. ) ;
#83 = CIRCLE ( 'NONE', #33, 0.05799999999999996800 ) ;
#84 = VECTOR ( 'NONE', #388, 39.37007874015748100 ) ;
#85 = LINE ( 'NONE', #384, #163 ) ;
#86 = ORIENTED_EDGE ( 'NONE', *, *, #12, .T. ) ;
#87 = FACE_OUTER_BOUND ( 'NONE', #92, .T. ) ;
#88 = LENGTH_MEASURE_WITH_UNIT ( LENGTH_MEASURE( 0.02539999999999999900 ), #290 );
#89 = CYLINDRICAL_SURFACE ( 'NONE', #198, 0.05799999999999996800 ) ;
#90 = LINE ( 'NONE', #354, #42 ) ;
#91 = VECTOR ( 'NONE', #341, 39.37007874015748100 ) ;
#92 = EDGE_LOOP ( 'NONE', ( #311, #309, #317, #320 ) ) ;
#93 = EDGE_LOOP ( 'NONE', ( #157, #318, #314, #165 ) ) ;
#94 = ORIENTED_EDGE ( 'NONE', *, *, #31, .F. ) ;
#95 = ORIENTED_EDGE ( 'NONE', *, *, #9, .T. ) ;
#96 = ORIENTED_EDGE ( 'NONE', *, *, #21, .F. ) ;
#97 = EDGE_LOOP ( 'NONE', ( #310, #313, #86, #49 ) ) ;
#98 = PERSON_AND_ORGANIZATION ( #216, #99 ) ;
#99 = ORGANIZATION ( 'UNSPECIFIED', 'UNSPECIFIED', '' ) ;
#100 = LINE ( 'NONE', #246, #172 ) ;
#101 = APPROVAL_PERSON_ORGANIZATION ( #98, #192, #288 ) ;
#102 = EDGE_LOOP ( 'NONE', ( #319, #307, #75, #324 ) ) ;
#103 = CIRCLE ( 'NONE', #36, 0.05799999999999996800 ) ;
#104 = EDGE_LOOP ( 'NONE', ( #105, #48 ) ) ;
#105 = ORIENTED_EDGE ( 'NONE', *, *, #26, .F. ) ;
#106 = ORIENTED_EDGE ( 'NONE', *, *, #34, .T. ) ;
#107 = ORIENTED_EDGE ( 'NONE', *, *, #23, .F. ) ;
#108 = ORIENTED_EDGE ( 'NONE', *, *, #20, .F. ) ;
#109 = ORIENTED_EDGE ( 'NONE', *, *, #27, .T. ) ;
#110 = ORIENTED_EDGE ( 'NONE', *, *, #11, .F. ) ;
#111 = ORIENTED_EDGE ( 'NONE', *, *, #17, .T. ) ;
#112 = LINE ( 'NONE', #326, #159 ) ;
#113 = LOCAL_TIME ( 14, 41, 15.00000000000000000, #173 ) ;
#114 = FACE_BOUND ( 'NONE', #70, .T. ) ;
#115 = FACE_OUTER_BOUND ( 'NONE', #144, .T. ) ;
#116 = CYLINDRICAL_SURFACE ( 'NONE', #5, 0.05799999999999996800 ) ;
#117 = PERSON_AND_ORGANIZATION ( #216, #99 ) ;
#118 = CIRCLE ( 'NONE', #13, 0.05799999999999996800 ) ;
#119 = ORIENTED_EDGE ( 'NONE', *, *, #26, .T. ) ;
#120 = ORIENTED_EDGE ( 'NONE', *, *, #24, .F. ) ;
#121 = VECTOR ( 'NONE', #269, 39.37007874015748100 ) ;
#122 = FACE_OUTER_BOUND ( 'NONE', #141, .T. ) ;
#123 = CIRCLE ( 'NONE', #7, 0.05799999999999996800 ) ;
#124 = FACE_OUTER_BOUND ( 'NONE', #93, .T. ) ;
#125 = FACE_OUTER_BOUND ( 'NONE', #102, .T. ) ;
#126 = FACE_OUTER_BOUND ( 'NONE', #71, .T. ) ;
#127 = COORDINATED_UNIVERSAL_TIME_OFFSET ( 6, 0, .BEHIND. ) ;
#128 = LOCAL_TIME ( 14, 41, 15.00000000000000000, #127 ) ;
#129 = CALENDAR_DATE ( 2010, 8, 7 ) ;
#130 = LOCAL_TIME ( 14, 41, 15.00000000000000000, #137 ) ;
#131 = CALENDAR_DATE ( 2010, 8, 7 ) ;
#132 = COORDINATED_UNIVERSAL_TIME_OFFSET ( 6, 0, .BEHIND. ) ;
#133 = LOCAL_TIME ( 14, 41, 15.00000000000000000, #132 ) ;
#134 = DATE_AND_TIME ( #58, #133 ) ;
#135 = DATE_AND_TIME ( #129, #128 ) ;
#136 = APPROVAL_PERSON_ORGANIZATION ( #117, #194, #273 ) ;
#137 = COORDINATED_UNIVERSAL_TIME_OFFSET ( 6, 0, .BEHIND. ) ;
#138 = LINE ( 'NONE', #352, #139 ) ;
#139 = VECTOR ( 'NONE', #351, 39.37007874015748100 ) ;
#140 = EDGE_LOOP ( 'NONE', ( #321, #166, #54, #94 ) ) ;
#141 = EDGE_LOOP ( 'NONE', ( #170, #120, #304, #312 ) ) ;
#142 = CIRCLE ( 'NONE', #16, 0.05799999999999996800 ) ;
#143 = LINE ( 'NONE', #382, #51 ) ;
#144 = EDGE_LOOP ( 'NONE', ( #106, #110, #107, #74 ) ) ;
#145 = EDGE_LOOP ( 'NONE', ( #316, #306 ) ) ;
#146 = LINE ( 'NONE', #340, #91 ) ;
#147 = CIRCLE ( 'NONE', #30, 0.05799999999999996800 ) ;
#148 = LINE ( 'NONE', #380, #45 ) ;
#149 = CIRCLE ( 'NONE', #2, 0.05799999999999996800 ) ;
#150 = APPROVAL_DATE_TIME ( #134, #196 ) ;
#151 = PERSON_AND_ORGANIZATION ( #216, #99 ) ;
#152 = COORDINATED_UNIVERSAL_TIME_OFFSET ( 6, 0, .BEHIND. ) ;
#153 = LOCAL_TIME ( 14, 41, 15.00000000000000000, #152 ) ;
#154 = CALENDAR_DATE ( 2010, 8, 7 ) ;
#155 = DATE_AND_TIME ( #154, #153 ) ;
#156 = ORIENTED_EDGE ( 'NONE', *, *, #6, .F. ) ;
#157 = ORIENTED_EDGE ( 'NONE', *, *, #14, .T. ) ;
#158 = APPROVAL_PERSON_ORGANIZATION ( #176, #196, #278 ) ;
#159 = VECTOR ( 'NONE', #355, 39.37007874015748100 ) ;
#160 =( GEOMETRIC_REPRESENTATION_CONTEXT ( 3 ) GLOBAL_UNCERTAINTY_ASSIGNED_CONTEXT ( ( #201 ) ) GLOBAL_UNIT_ASSIGNED_CONTEXT ( ( #241, #296, #253 ) ) REPRESENTATION_CONTEXT ( 'NONE', 'WORKASPACE' ) );
#161 = PERSON_AND_ORGANIZATION ( #216, #99 ) ;
#162 = SHAPE_DEFINITION_REPRESENTATION ( #204, #202 ) ;
#163 = VECTOR ( 'NONE', #385, 39.37007874015748100 ) ;
#164 = EDGE_LOOP ( 'NONE', ( #60, #108, #96, #95 ) ) ;
#165 = ORIENTED_EDGE ( 'NONE', *, *, #22, .T. ) ;
#166 = ORIENTED_EDGE ( 'NONE', *, *, #1, .F. ) ;
#167 = LINE ( 'NONE', #348, #44 ) ;
#168 = VECTOR ( 'NONE', #221, 39.37007874015748100 ) ;
#169 = LINE ( 'NONE', #356, #77 ) ;
#170 = ORIENTED_EDGE ( 'NONE', *, *, #15, .F. ) ;
#171 = ORIENTED_EDGE ( 'NONE', *, *, #3, .F. ) ;
#172 = VECTOR ( 'NONE', #239, 39.37007874015748100 ) ;
#173 = COORDINATED_UNIVERSAL_TIME_OFFSET ( 6, 0, .BEHIND. ) ;
#174 = LINE ( 'NONE', #369, #78 ) ;
#175 = LINE ( 'NONE', #293, #121 ) ;
#176 = PERSON_AND_ORGANIZATION ( #216, #99 ) ;
#177 = CC_DESIGN_APPROVAL ( #194, ( #189 ) ) ;
#178 = AXIS2_PLACEMENT_3D ( 'NONE', #255, #249, #280 ) ;
#179 = PRODUCT_DEFINITION ( 'UNKNOWN', '', #182, #203 ) ;
#180 = CC_DESIGN_PERSON_AND_ORGANIZATION_ASSIGNMENT ( #61, #286, ( #189 ) ) ;
#181 = AXIS2_PLACEMENT_3D ( 'NONE', #225, #266, #235 ) ;
#182 = PRODUCT_DEFINITION_FORMATION_WITH_SPECIFIED_SOURCE ( 'ANY', '', #217, .NOT_KNOWN. ) ;
#183 = AXIS2_PLACEMENT_3D ( 'NONE', #252, #301, #295 ) ;
#184 = CC_DESIGN_SECURITY_CLASSIFICATION ( #189, ( #182 ) ) ;
#185 = CC_DESIGN_PERSON_AND_ORGANIZATION_ASSIGNMENT ( #151, #275, ( #179 ) ) ;
#186 = CC_DESIGN_DATE_AND_TIME_ASSIGNMENT ( #135, #289, ( #189 ) ) ;
#187 = CC_DESIGN_PERSON_AND_ORGANIZATION_ASSIGNMENT ( #63, #287, ( #182 ) ) ;
#188 = CC_DESIGN_APPROVAL ( #196, ( #179 ) ) ;
#189 = SECURITY_CLASSIFICATION ( '', '', #272 ) ;
#190 = CC_DESIGN_PERSON_AND_ORGANIZATION_ASSIGNMENT ( #64, #282, ( #182 ) ) ;
#191 = CC_DESIGN_DATE_AND_TIME_ASSIGNMENT ( #155, #276, ( #179 ) ) ;
#192 = APPROVAL ( #274, 'UNSPECIFIED' ) ;
#193 = AXIS2_PLACEMENT_3D ( 'NONE', #258, #260, #257 ) ;
#194 = APPROVAL ( #271, 'UNSPECIFIED' ) ;
#195 = PRODUCT_RELATED_PRODUCT_CATEGORY ( 'detail', '', ( #217 ) ) ;
#196 = APPROVAL ( #283, 'UNSPECIFIED' ) ;
#197 = CC_DESIGN_PERSON_AND_ORGANIZATION_ASSIGNMENT ( #161, #285, ( #217 ) ) ;
#198 = AXIS2_PLACEMENT_3D ( 'NONE', #244, #267, #240 ) ;
#199 = CC_DESIGN_APPROVAL ( #192, ( #182 ) ) ;
#200 = MANIFOLD_SOLID_BREP ( '#4 Clearance Hole1', #72 ) ;
#201 = UNCERTAINTY_MEASURE_WITH_UNIT (LENGTH_MEASURE( 1.000000000000000100E-005 ), #241, 'distance_accuracy_value', 'NONE');
#202 = ADVANCED_BREP_SHAPE_REPRESENTATION ( 'D1001686-v1_aLIGO_SUS_HSTS_Replacement Weight, Upper Mass, HSTS', ( #200, #178 ), #160 ) ;
#203 = DESIGN_CONTEXT ( 'detailed design', #281, 'design' ) ;
#204 = PRODUCT_DEFINITION_SHAPE ( 'NONE', 'NONE',  #179 ) ;
#205 = DIMENSIONAL_EXPONENTS ( 1.000000000000000000, 0.0000000000000000000, 0.0000000000000000000, 0.0000000000000000000, 0.0000000000000000000, 0.0000000000000000000, 0.0000000000000000000 ) ;
#206 = ADVANCED_FACE ( 'NONE', ( #124 ), #224, .F. ) ;
#207 = ADVANCED_FACE ( 'NONE', ( #125 ), #256, .T. ) ;
#208 = ADVANCED_FACE ( 'NONE', ( #126 ), #53, .F. ) ;
#209 = ADVANCED_FACE ( 'NONE', ( #122 ), #80, .F. ) ;
#210 = ADVANCED_FACE ( 'NONE', ( #43 ), #237, .F. ) ;
#211 = ADVANCED_FACE ( 'NONE', ( #82 ), #116, .F. ) ;
#212 = ADVANCED_FACE ( 'NONE', ( #47, #39, #41 ), #263, .F. ) ;
#213 = ADVANCED_FACE ( 'NONE', ( #40, #114, #87 ), #259, .F. ) ;
#214 = ADVANCED_FACE ( 'NONE', ( #115 ), #242, .F. ) ;
#215 = ADVANCED_FACE ( 'NONE', ( #57 ), #89, .F. ) ;
#216 = PERSON ( 'UNSPECIFIED', 'UNSPECIFIED', 'UNSPECIFIED', ('UNSPECIFIED'), ('UNSPECIFIED'), ('UNSPECIFIED') ) ;
#217 = PRODUCT ( 'D1001686-v1_aLIGO_SUS_HSTS_Replacement Weight, Upper Mass, HSTS', 'D1001686-v1_aLIGO_SUS_HSTS_Replacement Weight, Upper Mass, HSTS', '', ( #279 ) ) ;
#218 = DIRECTION ( 'NONE',  ( -0.0000000000000000000, 1.000000000000000000, -0.0000000000000000000 ) ) ;
#219 = CARTESIAN_POINT ( 'NONE',  ( 0.4049999999999999700, 0.1124999999999999900, -0.8000000000000000400 ) ) ;
#220 = DIRECTION ( 'NONE',  ( -0.0000000000000000000, 0.0000000000000000000, 1.000000000000000000 ) ) ;
#221 = DIRECTION ( 'NONE',  ( 0.0000000000000000000, -1.000000000000000000, 0.0000000000000000000 ) ) ;
#222 = CARTESIAN_POINT ( 'NONE',  ( 0.0000000000000000000, -0.1124999999999999900, 0.4079999999999999200 ) ) ;
#223 = DIRECTION ( 'NONE',  ( 0.0000000000000000000, 0.0000000000000000000, 1.000000000000000000 ) ) ;
#224 = PLANE ( 'NONE',  #35 ) ;
#225 = CARTESIAN_POINT ( 'NONE',  ( -0.4050000000000001400, -0.1124999999999999900, 0.8000000000000000400 ) ) ;
#226 = DIRECTION ( 'NONE',  ( -0.0000000000000000000, 1.000000000000000000, -0.0000000000000000000 ) ) ;
#227 = CARTESIAN_POINT ( 'NONE',  ( 0.4049999999999999700, -0.1124999999999999900, 0.8000000000000000400 ) ) ;
#228 = DIRECTION ( 'NONE',  ( 0.0000000000000000000, 0.0000000000000000000, 1.000000000000000000 ) ) ;
#229 = CARTESIAN_POINT ( 'NONE',  ( 7.102951435054646700E-018, 0.1124999999999999900, -0.4079999999999999200 ) ) ;
#230 = CARTESIAN_POINT ( 'NONE',  ( -0.4050000000000001400, -0.1124999999999999900, -0.8000000000000000400 ) ) ;
#231 = CARTESIAN_POINT ( 'NONE',  ( 0.0000000000000000000, 0.1124999999999999900, 0.4079999999999999200 ) ) ;
#232 = CARTESIAN_POINT ( 'NONE',  ( 7.102951435054642100E-018, -0.1124999999999999900, -0.4079999999999999200 ) ) ;
#233 = DIRECTION ( 'NONE',  ( 1.000000000000000000, 0.0000000000000000000, 0.0000000000000000000 ) ) ;
#234 = CARTESIAN_POINT ( 'NONE',  ( 0.0000000000000000000, 0.1124999999999999900, -0.2919999999999999800 ) ) ;
#235 = DIRECTION ( 'NONE',  ( 0.0000000000000000000, -0.0000000000000000000, 1.000000000000000000 ) ) ;
#236 = CARTESIAN_POINT ( 'NONE',  ( -0.4050000000000001400, 0.1124999999999999900, -0.8000000000000000400 ) ) ;
#237 = PLANE ( 'NONE',  #32 ) ;
#238 = DIRECTION ( 'NONE',  ( 1.000000000000000000, 0.0000000000000000000, 0.0000000000000000000 ) ) ;
#239 = DIRECTION ( 'NONE',  ( -1.000000000000000000, -0.0000000000000000000, -0.0000000000000000000 ) ) ;
#240 = DIRECTION ( 'NONE',  ( 0.0000000000000000000, 0.0000000000000000000, 1.000000000000000000 ) ) ;
#241 =( CONVERSION_BASED_UNIT ( 'INCH', #88 ) LENGTH_UNIT ( ) NAMED_UNIT ( #205 ) );
#242 = PLANE ( 'NONE',  #183 ) ;
#243 = DIRECTION ( 'NONE',  ( 0.0000000000000000000, 0.0000000000000000000, 1.000000000000000000 ) ) ;
#244 = CARTESIAN_POINT ( 'NONE',  ( -0.0000000000000000000, 0.1124999999999999900, -0.3499999999999999800 ) ) ;
#245 = DIRECTION ( 'NONE',  ( -0.0000000000000000000, 0.0000000000000000000, 1.000000000000000000 ) ) ;
#246 = CARTESIAN_POINT ( 'NONE',  ( -0.4050000000000001400, 0.1124999999999999900, -0.8000000000000000400 ) ) ;
#247 = DIRECTION ( 'NONE',  ( -1.000000000000000000, 0.0000000000000000000, 0.0000000000000000000 ) ) ;
#248 = CARTESIAN_POINT ( 'NONE',  ( 0.4049999999999999700, 0.1124999999999999900, 0.8000000000000000400 ) ) ;
#249 = DIRECTION ( 'NONE',  ( 0.0000000000000000000, 0.0000000000000000000, 1.000000000000000000 ) ) ;
#250 = DIRECTION ( 'NONE',  ( 0.0000000000000000000, 0.0000000000000000000, 1.000000000000000000 ) ) ;
#251 = CARTESIAN_POINT ( 'NONE',  ( -0.4050000000000001400, 0.1124999999999999900, -0.8000000000000000400 ) ) ;
#252 = CARTESIAN_POINT ( 'NONE',  ( -0.4050000000000001400, 0.1124999999999999900, 0.8000000000000000400 ) ) ;
#253 =( NAMED_UNIT ( * ) SI_UNIT ( $, .STERADIAN. ) SOLID_ANGLE_UNIT ( ) );
#254 = CARTESIAN_POINT ( 'NONE',  ( 0.4049999999999999700, -0.1124999999999999900, -0.8000000000000000400 ) ) ;
#255 = CARTESIAN_POINT ( 'NONE',  ( 0.0000000000000000000, 0.0000000000000000000, 0.0000000000000000000 ) ) ;
#256 = PLANE ( 'NONE',  #37 ) ;
#257 = DIRECTION ( 'NONE',  ( 0.0000000000000000000, -0.0000000000000000000, -1.000000000000000000 ) ) ;
#258 = CARTESIAN_POINT ( 'NONE',  ( -0.4050000000000001400, 0.1124999999999999900, 0.8000000000000000400 ) ) ;
#259 = PLANE ( 'NONE',  #181 ) ;
#260 = DIRECTION ( 'NONE',  ( 0.0000000000000000000, -1.000000000000000000, 0.0000000000000000000 ) ) ;
#261 = DIRECTION ( 'NONE',  ( -0.0000000000000000000, 1.000000000000000000, -0.0000000000000000000 ) ) ;
#262 = DIRECTION ( 'NONE',  ( -0.0000000000000000000, 1.000000000000000000, -0.0000000000000000000 ) ) ;
#263 = PLANE ( 'NONE',  #193 ) ;
#264 = CARTESIAN_POINT ( 'NONE',  ( 0.0000000000000000000, 0.1124999999999999900, 0.3499999999999999800 ) ) ;
#265 = CARTESIAN_POINT ( 'NONE',  ( 0.0000000000000000000, 0.1124999999999999900, 0.3499999999999999800 ) ) ;
#266 = DIRECTION ( 'NONE',  ( 0.0000000000000000000, 1.000000000000000000, 0.0000000000000000000 ) ) ;
#267 = DIRECTION ( 'NONE',  ( -0.0000000000000000000, 1.000000000000000000, -0.0000000000000000000 ) ) ;
#268 = CARTESIAN_POINT ( 'NONE',  ( -0.0000000000000000000, 0.1124999999999999900, -0.3499999999999999800 ) ) ;
#269 = DIRECTION ( 'NONE',  ( -0.0000000000000000000, 1.000000000000000000, -0.0000000000000000000 ) ) ;
#270 = CARTESIAN_POINT ( 'NONE',  ( 0.4049999999999999700, 0.1124999999999999900, 0.8000000000000000400 ) ) ;
#271 = APPROVAL_STATUS ( 'not_yet_approved' ) ;
#272 = SECURITY_CLASSIFICATION_LEVEL ( 'unclassified' ) ;
#273 = APPROVAL_ROLE ( '' ) ;
#274 = APPROVAL_STATUS ( 'not_yet_approved' ) ;
#275 = PERSON_AND_ORGANIZATION_ROLE ( 'creator' ) ;
#276 = DATE_TIME_ROLE ( 'creation_date' ) ;
#277 = APPLICATION_PROTOCOL_DEFINITION ( 'international standard', 'config_control_design', 1994, #291 ) ;
#278 = APPROVAL_ROLE ( '' ) ;
#279 = MECHANICAL_CONTEXT ( 'NONE', #291, 'mechanical' ) ;
#280 = DIRECTION ( 'NONE',  ( 1.000000000000000000, 0.0000000000000000000, 0.0000000000000000000 ) ) ;
#281 = APPLICATION_CONTEXT ( 'configuration controlled 3d designs of mechanical parts and assemblies' ) ;
#282 = PERSON_AND_ORGANIZATION_ROLE ( 'design_supplier' ) ;
#283 = APPROVAL_STATUS ( 'not_yet_approved' ) ;
#284 = APPLICATION_PROTOCOL_DEFINITION ( 'international standard', 'config_control_design', 1994, #281 ) ;
#285 = PERSON_AND_ORGANIZATION_ROLE ( 'design_owner' ) ;
#286 = PERSON_AND_ORGANIZATION_ROLE ( 'classification_officer' ) ;
#287 = PERSON_AND_ORGANIZATION_ROLE ( 'creator' ) ;
#288 = APPROVAL_ROLE ( '' ) ;
#289 = DATE_TIME_ROLE ( 'classification_date' ) ;
#290 =( LENGTH_UNIT ( ) NAMED_UNIT ( * ) SI_UNIT ( $, .METRE. ) );
#291 = APPLICATION_CONTEXT ( 'configuration controlled 3d designs of mechanical parts and assemblies' ) ;
#292 = CARTESIAN_POINT ( 'NONE',  ( 0.4049999999999999700, -0.1124999999999999900, -0.8000000000000000400 ) ) ;
#293 = CARTESIAN_POINT ( 'NONE',  ( 0.0000000000000000000, 0.1124999999999999900, -0.2919999999999999800 ) ) ;
#294 = DIRECTION ( 'NONE',  ( 0.0000000000000000000, 0.0000000000000000000, 1.000000000000000000 ) ) ;
#295 = DIRECTION ( 'NONE',  ( -0.0000000000000000000, 0.0000000000000000000, -1.000000000000000000 ) ) ;
#296 =( NAMED_UNIT ( * ) PLANE_ANGLE_UNIT ( ) SI_UNIT ( $, .RADIAN. ) );
#297 = CARTESIAN_POINT ( 'NONE',  ( -0.4050000000000001400, -0.1124999999999999900, 0.8000000000000000400 ) ) ;
#298 = CARTESIAN_POINT ( 'NONE',  ( 0.0000000000000000000, -0.1124999999999999900, -0.2919999999999999800 ) ) ;
#299 = CARTESIAN_POINT ( 'NONE',  ( 7.102951435054642100E-018, -0.1124999999999999900, 0.2919999999999999800 ) ) ;
#300 = CARTESIAN_POINT ( 'NONE',  ( 7.102951435054646700E-018, 0.1124999999999999900, 0.2919999999999999800 ) ) ;
#301 = DIRECTION ( 'NONE',  ( 1.000000000000000000, 0.0000000000000000000, -0.0000000000000000000 ) ) ;
#302 = CARTESIAN_POINT ( 'NONE',  ( 0.4049999999999999700, -0.1124999999999999900, 0.8000000000000000400 ) ) ;
#303 = CARTESIAN_POINT ( 'NONE',  ( -0.4050000000000001400, 0.1124999999999999900, 0.8000000000000000400 ) ) ;
#304 = ORIENTED_EDGE ( 'NONE', *, *, #10, .T. ) ;
#305 = ORIENTED_EDGE ( 'NONE', *, *, #24, .T. ) ;
#306 = ORIENTED_EDGE ( 'NONE', *, *, #12, .F. ) ;
#307 = ORIENTED_EDGE ( 'NONE', *, *, #21, .T. ) ;
#308 = ORIENTED_EDGE ( 'NONE', *, *, #3, .T. ) ;
#309 = ORIENTED_EDGE ( 'NONE', *, *, #22, .F. ) ;
#310 = ORIENTED_EDGE ( 'NONE', *, *, #17, .F. ) ;
#311 = ORIENTED_EDGE ( 'NONE', *, *, #1, .T. ) ;
#312 = ORIENTED_EDGE ( 'NONE', *, *, #8, .T. ) ;
#313 = ORIENTED_EDGE ( 'NONE', *, *, #15, .T. ) ;
#314 = ORIENTED_EDGE ( 'NONE', *, *, #4, .F. ) ;
#315 = ORIENTED_EDGE ( 'NONE', *, *, #27, .F. ) ;
#316 = ORIENTED_EDGE ( 'NONE', *, *, #8, .F. ) ;
#317 = ORIENTED_EDGE ( 'NONE', *, *, #25, .F. ) ;
#318 = ORIENTED_EDGE ( 'NONE', *, *, #9, .F. ) ;
#319 = ORIENTED_EDGE ( 'NONE', *, *, #4, .T. ) ;
#320 = ORIENTED_EDGE ( 'NONE', *, *, #11, .T. ) ;
#321 = ORIENTED_EDGE ( 'NONE', *, *, #14, .F. ) ;
#322 = ORIENTED_EDGE ( 'NONE', *, *, #28, .T. ) ;
#323 = ORIENTED_EDGE ( 'NONE', *, *, #28, .F. ) ;
#324 = ORIENTED_EDGE ( 'NONE', *, *, #25, .T. ) ;
#325 = CARTESIAN_POINT ( 'NONE',  ( 0.0000000000000000000, -0.1124999999999999900, -0.3499999999999999800 ) ) ;
#326 = CARTESIAN_POINT ( 'NONE',  ( -0.4050000000000001400, 0.1124999999999999900, 0.8000000000000000400 ) ) ;
#327 = DIRECTION ( 'NONE',  ( -0.0000000000000000000, 1.000000000000000000, -0.0000000000000000000 ) ) ;
#328 = DIRECTION ( 'NONE',  ( 0.0000000000000000000, 0.0000000000000000000, 1.000000000000000000 ) ) ;
#329 = DIRECTION ( 'NONE',  ( 0.0000000000000000000, 0.0000000000000000000, 1.000000000000000000 ) ) ;
#330 = CARTESIAN_POINT ( 'NONE',  ( 0.0000000000000000000, -0.1124999999999999900, 0.3499999999999999800 ) ) ;
#331 = DIRECTION ( 'NONE',  ( -0.0000000000000000000, 1.000000000000000000, -0.0000000000000000000 ) ) ;
#332 = VERTEX_POINT ( 'NONE', #219 ) ;
#333 = VERTEX_POINT ( 'NONE', #229 ) ;
#334 = CARTESIAN_POINT ( 'NONE',  ( -0.4050000000000001400, -0.1124999999999999900, -0.8000000000000000400 ) ) ;
#335 = CARTESIAN_POINT ( 'NONE',  ( 7.102951435054645200E-018, 0.1124999999999999900, -0.4079999999999999200 ) ) ;
#336 = CARTESIAN_POINT ( 'NONE',  ( -0.0000000000000000000, 0.1124999999999999900, -0.3499999999999999800 ) ) ;
#337 = DIRECTION ( 'NONE',  ( -0.0000000000000000000, 1.000000000000000000, -0.0000000000000000000 ) ) ;
#338 = DIRECTION ( 'NONE',  ( 0.0000000000000000000, 0.0000000000000000000, 1.000000000000000000 ) ) ;
#339 = CARTESIAN_POINT ( 'NONE',  ( -0.0000000000000000000, 0.1124999999999999900, -0.3499999999999999800 ) ) ;
#340 = CARTESIAN_POINT ( 'NONE',  ( -0.4050000000000001400, 0.1124999999999999900, 0.8000000000000000400 ) ) ;
#341 = DIRECTION ( 'NONE',  ( -0.0000000000000000000, -0.0000000000000000000, -1.000000000000000000 ) ) ;
#342 = CARTESIAN_POINT ( 'NONE',  ( 0.0000000000000000000, -0.1124999999999999900, 0.3499999999999999800 ) ) ;
#343 = DIRECTION ( 'NONE',  ( -0.0000000000000000000, 1.000000000000000000, -0.0000000000000000000 ) ) ;
#344 = DIRECTION ( 'NONE',  ( -0.0000000000000000000, 1.000000000000000000, -0.0000000000000000000 ) ) ;
#345 = VERTEX_POINT ( 'NONE', #254 ) ;
#346 = DIRECTION ( 'NONE',  ( 0.0000000000000000000, 0.0000000000000000000, 1.000000000000000000 ) ) ;
#347 = DIRECTION ( 'NONE',  ( 1.000000000000000000, 0.0000000000000000000, 0.0000000000000000000 ) ) ;
#348 = CARTESIAN_POINT ( 'NONE',  ( -0.4050000000000001400, -0.1124999999999999900, 0.8000000000000000400 ) ) ;
#349 = DIRECTION ( 'NONE',  ( 0.0000000000000000000, 0.0000000000000000000, 1.000000000000000000 ) ) ;
#350 = DIRECTION ( 'NONE',  ( -0.0000000000000000000, 1.000000000000000000, -0.0000000000000000000 ) ) ;
#351 = DIRECTION ( 'NONE',  ( 0.0000000000000000000, -1.000000000000000000, 0.0000000000000000000 ) ) ;
#352 = CARTESIAN_POINT ( 'NONE',  ( -0.4050000000000001400, 0.1124999999999999900, 0.8000000000000000400 ) ) ;
#353 = DIRECTION ( 'NONE',  ( -0.0000000000000000000, -0.0000000000000000000, -1.000000000000000000 ) ) ;
#354 = CARTESIAN_POINT ( 'NONE',  ( 0.4049999999999999700, -0.1124999999999999900, 0.8000000000000000400 ) ) ;
#355 = DIRECTION ( 'NONE',  ( -1.000000000000000000, -0.0000000000000000000, -0.0000000000000000000 ) ) ;
#356 = CARTESIAN_POINT ( 'NONE',  ( 7.102951435054645200E-018, 0.1124999999999999900, 0.2919999999999999800 ) ) ;
#357 = VERTEX_POINT ( 'NONE', #232 ) ;
#358 = VERTEX_POINT ( 'NONE', #234 ) ;
#359 = VERTEX_POINT ( 'NONE', #297 ) ;
#360 = VERTEX_POINT ( 'NONE', #230 ) ;
#361 = VERTEX_POINT ( 'NONE', #222 ) ;
#362 = VERTEX_POINT ( 'NONE', #270 ) ;
#363 = VERTEX_POINT ( 'NONE', #300 ) ;
#364 = VERTEX_POINT ( 'NONE', #299 ) ;
#365 = VERTEX_POINT ( 'NONE', #302 ) ;
#366 = VERTEX_POINT ( 'NONE', #231 ) ;
#367 = VERTEX_POINT ( 'NONE', #303 ) ;
#368 = CARTESIAN_POINT ( 'NONE',  ( 0.0000000000000000000, 0.1124999999999999900, 0.4079999999999999200 ) ) ;
#369 = CARTESIAN_POINT ( 'NONE',  ( 0.4049999999999999700, 0.1124999999999999900, -0.8000000000000000400 ) ) ;
#370 = DIRECTION ( 'NONE',  ( 0.0000000000000000000, 0.0000000000000000000, 1.000000000000000000 ) ) ;
#371 = CARTESIAN_POINT ( 'NONE',  ( 0.0000000000000000000, 0.1124999999999999900, 0.3499999999999999800 ) ) ;
#372 = DIRECTION ( 'NONE',  ( -0.0000000000000000000, 1.000000000000000000, -0.0000000000000000000 ) ) ;
#373 = DIRECTION ( 'NONE',  ( -0.0000000000000000000, 1.000000000000000000, -0.0000000000000000000 ) ) ;
#374 = DIRECTION ( 'NONE',  ( 0.0000000000000000000, 0.0000000000000000000, 1.000000000000000000 ) ) ;
#375 = VERTEX_POINT ( 'NONE', #251 ) ;
#376 = VERTEX_POINT ( 'NONE', #298 ) ;
#377 = DIRECTION ( 'NONE',  ( -0.0000000000000000000, 1.000000000000000000, -0.0000000000000000000 ) ) ;
#378 = CARTESIAN_POINT ( 'NONE',  ( 0.0000000000000000000, -0.1124999999999999900, -0.3499999999999999800 ) ) ;
#379 = DIRECTION ( 'NONE',  ( -0.0000000000000000000, 1.000000000000000000, -0.0000000000000000000 ) ) ;
#380 = CARTESIAN_POINT ( 'NONE',  ( 0.4049999999999999700, 0.1124999999999999900, 0.8000000000000000400 ) ) ;
#381 = DIRECTION ( 'NONE',  ( 1.000000000000000000, 0.0000000000000000000, 0.0000000000000000000 ) ) ;
#382 = CARTESIAN_POINT ( 'NONE',  ( 0.4049999999999999700, 0.1124999999999999900, 0.8000000000000000400 ) ) ;
#383 = DIRECTION ( 'NONE',  ( -0.0000000000000000000, -0.0000000000000000000, -1.000000000000000000 ) ) ;
#384 = CARTESIAN_POINT ( 'NONE',  ( -0.4050000000000001400, -0.1124999999999999900, 0.8000000000000000400 ) ) ;
#385 = DIRECTION ( 'NONE',  ( -0.0000000000000000000, -0.0000000000000000000, -1.000000000000000000 ) ) ;
#386 = DIRECTION ( 'NONE',  ( -0.0000000000000000000, 1.000000000000000000, -0.0000000000000000000 ) ) ;
#387 = CARTESIAN_POINT ( 'NONE',  ( 0.0000000000000000000, 0.1124999999999999900, 0.3499999999999999800 ) ) ;
#388 = DIRECTION ( 'NONE',  ( -0.0000000000000000000, 1.000000000000000000, -0.0000000000000000000 ) ) ;
ENDSEC;
END-ISO-10303-21;
