ISO-10303-21;
HEADER;
FILE_DESCRIPTION (( 'STEP AP203' ),
    '1' );
FILE_NAME ('D1002151_aLIGO_BSFM_PRISM_BONDING_SUPPORT_CYLINDER.STEP',
    '2013-11-08T21:15:11',
    ( '' ),
    ( '' ),
    'SwSTEP 2.0',
    'SolidWorks 2013',
    '' );
FILE_SCHEMA (( 'CONFIG_CONTROL_DESIGN' ));
ENDSEC;

DATA;
#1 = CONICAL_SURFACE ( 'NONE', #302, 1.727199999999987900, 1.029744258676652300 ) ;
#2 =( NAMED_UNIT ( * ) SI_UNIT ( $, .STERADIAN. ) SOLID_ANGLE_UNIT ( ) );
#3 = CARTESIAN_POINT ( 'NONE',  ( 0.0000000000000000000, 0.0000000000000000000, 0.0000000000000000000 ) ) ;
#4 = PRODUCT_DEFINITION ( 'UNKNOWN', '', #124, #338 ) ;
#5 = EDGE_CURVE ( 'NONE', #97, #7, #59, .T. ) ;
#6 = CARTESIAN_POINT ( 'NONE',  ( 0.0000000000000000000, 65.90000000000000600, 1.727199999999993600 ) ) ;
#7 = VERTEX_POINT ( 'NONE', #257 ) ;
#8 = DIRECTION ( 'NONE',  ( 0.0000000000000000000, 0.0000000000000000000, -1.000000000000000000 ) ) ;
#9 = CALENDAR_DATE ( 2013, 8, 11 ) ;
#10 = CARTESIAN_POINT ( 'NONE',  ( 0.0000000000000000000, 55.19200000000000000, 0.0000000000000000000 ) ) ;
#11 = DIRECTION ( 'NONE',  ( -0.0000000000000000000, 1.000000000000000000, -0.0000000000000000000 ) ) ;
#12 = CIRCLE ( 'NONE', #277, 1.727199999999997800 ) ;
#13 = CALENDAR_DATE ( 2013, 8, 11 ) ;
#14 = VERTEX_POINT ( 'NONE', #23 ) ;
#15 = AXIS2_PLACEMENT_3D ( 'NONE', #212, #280, #121 ) ;
#16 = CARTESIAN_POINT ( 'NONE',  ( 0.0000000000000000000, 0.0000000000000000000, 0.0000000000000000000 ) ) ;
#17 = ORIENTED_EDGE ( 'NONE', *, *, #154, .T. ) ;
#18 = CONICAL_SURFACE ( 'NONE', #159, 1.727199999999997800, 1.029744258676651900 ) ;
#19 = AXIS2_PLACEMENT_3D ( 'NONE', #347, #24, #227 ) ;
#20 = FACE_BOUND ( 'NONE', #326, .T. ) ;
#21 = APPROVAL_PERSON_ORGANIZATION ( #207, #293, #203 ) ;
#22 = EDGE_LOOP ( 'NONE', ( #372, #297 ) ) ;
#23 = CARTESIAN_POINT ( 'NONE',  ( 0.0000000000000000000, 0.0000000000000000000, -4.000000000000000000 ) ) ;
#24 = DIRECTION ( 'NONE',  ( 0.0000000000000000000, 1.000000000000000000, 0.0000000000000000000 ) ) ;
#25 = ORIENTED_EDGE ( 'NONE', *, *, #98, .F. ) ;
#26 = ORIENTED_EDGE ( 'NONE', *, *, #327, .T. ) ;
#27 = APPROVAL ( #175, 'UNSPECIFIED' ) ;
#28 = EDGE_CURVE ( 'NONE', #224, #83, #211, .T. ) ;
#29 = DIRECTION ( 'NONE',  ( 0.0000000000000000000, 0.0000000000000000000, 1.000000000000000000 ) ) ;
#30 = CONICAL_SURFACE ( 'NONE', #356, 1.727199999999987900, 1.029744258676652300 ) ;
#31 = ORIENTED_EDGE ( 'NONE', *, *, #62, .F. ) ;
#32 = AXIS2_PLACEMENT_3D ( 'NONE', #308, #185, #152 ) ;
#33 = VERTEX_POINT ( 'NONE', #318 ) ;
#34 = ORIENTED_EDGE ( 'NONE', *, *, #193, .F. ) ;
#35 = DIRECTION ( 'NONE',  ( 1.049727191138617300E-016, -0.5150380749100560400, 0.8571673007021112200 ) ) ;
#36 = CARTESIAN_POINT ( 'NONE',  ( 0.0000000000000000000, 10.70799999999999500, -1.727199999999987900 ) ) ;
#37 = FACE_OUTER_BOUND ( 'NONE', #172, .T. ) ;
#38 = DIRECTION ( 'NONE',  ( -0.0000000000000000000, -1.000000000000000000, -0.0000000000000000000 ) ) ;
#39 = VERTEX_POINT ( 'NONE', #222 ) ;
#40 = CARTESIAN_POINT ( 'NONE',  ( 0.0000000000000000000, 65.90000000000000600, 0.0000000000000000000 ) ) ;
#41 = ADVANCED_FACE ( 'NONE', ( #200 ), #1, .F. ) ;
#42 = ORIENTED_EDGE ( 'NONE', *, *, #371, .F. ) ;
#43 = DIRECTION ( 'NONE',  ( 0.0000000000000000000, 0.0000000000000000000, -1.000000000000000000 ) ) ;
#44 = CC_DESIGN_APPROVAL ( #27, ( #4 ) ) ;
#45 = EDGE_CURVE ( 'NONE', #97, #243, #304, .T. ) ;
#46 = DIRECTION ( 'NONE',  ( -0.0000000000000000000, -1.000000000000000000, -0.0000000000000000000 ) ) ;
#47 = ADVANCED_FACE ( 'NONE', ( #223 ), #315, .F. ) ;
#48 = ORIENTED_EDGE ( 'NONE', *, *, #307, .F. ) ;
#49 = CARTESIAN_POINT ( 'NONE',  ( 0.0000000000000000000, 55.19200000000000000, 1.727199999999997800 ) ) ;
#50 = CALENDAR_DATE ( 2013, 8, 11 ) ;
#51 = DIRECTION ( 'NONE',  ( 1.049727191138617100E-016, 0.5150380749100563800, -0.8571673007021110000 ) ) ;
#52 = AXIS2_PLACEMENT_3D ( 'NONE', #148, #66, #336 ) ;
#53 = DIRECTION ( 'NONE',  ( 0.0000000000000000000, 0.0000000000000000000, 1.000000000000000000 ) ) ;
#54 = ORIENTED_EDGE ( 'NONE', *, *, #267, .T. ) ;
#55 = DIRECTION ( 'NONE',  ( -0.0000000000000000000, -1.000000000000000000, -0.0000000000000000000 ) ) ;
#56 = LINE ( 'NONE', #36, #283 ) ;
#57 = DATE_AND_TIME ( #9, #128 ) ;
#58 = COORDINATED_UNIVERSAL_TIME_OFFSET ( 6, 0, .BEHIND. ) ;
#59 = LINE ( 'NONE', #49, #129 ) ;
#60 = CARTESIAN_POINT ( 'NONE',  ( 0.0000000000000000000, 65.90000000000000600, 0.0000000000000000000 ) ) ;
#61 = CC_DESIGN_PERSON_AND_ORGANIZATION_ASSIGNMENT ( #286, #169, ( #4 ) ) ;
#62 = EDGE_CURVE ( 'NONE', #83, #147, #146, .T. ) ;
#63 = DIRECTION ( 'NONE',  ( -0.0000000000000000000, 1.000000000000000000, -0.0000000000000000000 ) ) ;
#64 = PERSON_AND_ORGANIZATION ( #292, #117 ) ;
#65 = CARTESIAN_POINT ( 'NONE',  ( 0.0000000000000000000, 0.0000000000000000000, 0.0000000000000000000 ) ) ;
#66 = DIRECTION ( 'NONE',  ( -0.0000000000000000000, 1.000000000000000000, -0.0000000000000000000 ) ) ;
#67 = CARTESIAN_POINT ( 'NONE',  ( 0.0000000000000000000, -1.343780439768404900E-015, 0.0000000000000000000 ) ) ;
#68 = FACE_OUTER_BOUND ( 'NONE', #381, .T. ) ;
#69 = ORIENTED_EDGE ( 'NONE', *, *, #260, .T. ) ;
#70 = AXIS2_PLACEMENT_3D ( 'NONE', #40, #95, #369 ) ;
#71 = ADVANCED_FACE ( 'NONE', ( #376, #233 ), #104, .T. ) ;
#72 = EDGE_LOOP ( 'NONE', ( #162, #288 ) ) ;
#73 = DIRECTION ( 'NONE',  ( 0.0000000000000000000, 0.0000000000000000000, 1.000000000000000000 ) ) ;
#74 = ADVANCED_FACE ( 'NONE', ( #75 ), #156, .T. ) ;
#75 = FACE_OUTER_BOUND ( 'NONE', #153, .T. ) ;
#76 = ORIENTED_EDGE ( 'NONE', *, *, #45, .T. ) ;
#77 = CARTESIAN_POINT ( 'NONE',  ( 0.0000000000000000000, 65.90000000000000600, 0.0000000000000000000 ) ) ;
#78 = EDGE_CURVE ( 'NONE', #328, #340, #81, .T. ) ;
#79 = ORIENTED_EDGE ( 'NONE', *, *, #307, .T. ) ;
#80 = COORDINATED_UNIVERSAL_TIME_OFFSET ( 6, 0, .BEHIND. ) ;
#81 = CIRCLE ( 'NONE', #235, 4.000000000000000000 ) ;
#82 = APPROVAL_DATE_TIME ( #316, #293 ) ;
#83 = VERTEX_POINT ( 'NONE', #107 ) ;
#84 = AXIS2_PLACEMENT_3D ( 'NONE', #215, #126, #73 ) ;
#85 = APPLICATION_PROTOCOL_DEFINITION ( 'international standard', 'config_control_design', 1994, #140 ) ;
#86 = ORIENTED_EDGE ( 'NONE', *, *, #267, .F. ) ;
#87 = APPROVAL_ROLE ( '' ) ;
#88 = ORIENTED_EDGE ( 'NONE', *, *, #281, .T. ) ;
#89 = CARTESIAN_POINT ( 'NONE',  ( 2.115209951487300600E-016, 65.90000000000000600, -1.727199999999993600 ) ) ;
#90 = DIRECTION ( 'NONE',  ( 0.0000000000000000000, 0.0000000000000000000, -1.000000000000000000 ) ) ;
#91 = LINE ( 'NONE', #253, #187 ) ;
#92 = CARTESIAN_POINT ( 'NONE',  ( 0.0000000000000000000, 65.90000000000000600, 1.727199999999989400 ) ) ;
#93 = CIRCLE ( 'NONE', #181, 1.727199999999989400 ) ;
#94 = CARTESIAN_POINT ( 'NONE',  ( 0.0000000000000000000, 0.0000000000000000000, 0.0000000000000000000 ) ) ;
#95 = DIRECTION ( 'NONE',  ( -0.0000000000000000000, 1.000000000000000000, -0.0000000000000000000 ) ) ;
#96 = ORIENTED_EDGE ( 'NONE', *, *, #246, .F. ) ;
#97 = VERTEX_POINT ( 'NONE', #131 ) ;
#98 = EDGE_CURVE ( 'NONE', #7, #243, #12, .T. ) ;
#99 = CARTESIAN_POINT ( 'NONE',  ( 0.0000000000000000000, 10.70799999999999500, 0.0000000000000000000 ) ) ;
#100 = CIRCLE ( 'NONE', #377, 4.000000000000000000 ) ;
#101 = DIRECTION ( 'NONE',  ( 0.0000000000000000000, 0.5150380749100563800, 0.8571673007021110000 ) ) ;
#102 = DIRECTION ( 'NONE',  ( -0.0000000000000000000, -1.000000000000000000, -0.0000000000000000000 ) ) ;
#103 = AXIS2_PLACEMENT_3D ( 'NONE', #99, #38, #333 ) ;
#104 = PLANE ( 'NONE',  #19 ) ;
#105 = ORIENTED_EDGE ( 'NONE', *, *, #62, .T. ) ;
#106 = ORIENTED_EDGE ( 'NONE', *, *, #174, .F. ) ;
#107 = CARTESIAN_POINT ( 'NONE',  ( 0.0000000000000000000, -1.343780439768404900E-015, -1.727199999999989400 ) ) ;
#108 = DIRECTION ( 'NONE',  ( -0.0000000000000000000, 1.000000000000000000, -0.0000000000000000000 ) ) ;
#109 = CALENDAR_DATE ( 2013, 8, 11 ) ;
#110 = CIRCLE ( 'NONE', #84, 1.727199999999989400 ) ;
#111 = DATE_TIME_ROLE ( 'classification_date' ) ;
#112 = ORIENTED_EDGE ( 'NONE', *, *, #78, .F. ) ;
#113 = DIRECTION ( 'NONE',  ( 0.0000000000000000000, 0.0000000000000000000, 1.000000000000000000 ) ) ;
#114 = EDGE_CURVE ( 'NONE', #328, #142, #296, .T. ) ;
#115 = DIRECTION ( 'NONE',  ( 1.000000000000000000, 0.0000000000000000000, 0.0000000000000000000 ) ) ;
#116 = DIRECTION ( 'NONE',  ( 0.0000000000000000000, 0.0000000000000000000, -1.000000000000000000 ) ) ;
#117 = ORGANIZATION ( 'UNSPECIFIED', 'UNSPECIFIED', '' ) ;
#118 = DIRECTION ( 'NONE',  ( -0.0000000000000000000, -1.000000000000000000, -0.0000000000000000000 ) ) ;
#119 = DIRECTION ( 'NONE',  ( -0.0000000000000000000, -1.000000000000000000, -0.0000000000000000000 ) ) ;
#120 = ORIENTED_EDGE ( 'NONE', *, *, #290, .T. ) ;
#121 = DIRECTION ( 'NONE',  ( 0.0000000000000000000, 0.0000000000000000000, 1.000000000000000000 ) ) ;
#122 = VERTEX_POINT ( 'NONE', #180 ) ;
#123 = AXIS2_PLACEMENT_3D ( 'NONE', #67, #178, #176 ) ;
#124 = PRODUCT_DEFINITION_FORMATION_WITH_SPECIFIED_SOURCE ( 'ANY', '', #236, .NOT_KNOWN. ) ;
#125 = DIRECTION ( 'NONE',  ( 0.0000000000000000000, 0.0000000000000000000, 1.000000000000000000 ) ) ;
#126 = DIRECTION ( 'NONE',  ( -0.0000000000000000000, 1.000000000000000000, -0.0000000000000000000 ) ) ;
#127 = ADVANCED_FACE ( 'NONE', ( #20, #241 ), #352, .F. ) ;
#128 = LOCAL_TIME ( 15, 15, 11.00000000000000000, #80 ) ;
#129 = VECTOR ( 'NONE', #101, 1000.000000000000000 ) ;
#130 = ORIENTED_EDGE ( 'NONE', *, *, #240, .T. ) ;
#131 = CARTESIAN_POINT ( 'NONE',  ( -2.876892857218754500E-015, 54.15419353881559100, 0.0000000000000000000 ) ) ;
#132 = EDGE_CURVE ( 'NONE', #224, #122, #166, .T. ) ;
#133 = VECTOR ( 'NONE', #298, 1000.000000000000000 ) ;
#134 = LOCAL_TIME ( 15, 15, 11.00000000000000000, #382 ) ;
#135 = ADVANCED_BREP_SHAPE_REPRESENTATION ( 'D1002151_aLIGO_BSFM_PRISM_BONDING_SUPPORT_CYLINDER', ( #285, #350 ), #266 ) ;
#136 = VECTOR ( 'NONE', #51, 1000.000000000000000 ) ;
#137 = ORIENTED_EDGE ( 'NONE', *, *, #45, .F. ) ;
#138 = AXIS2_PLACEMENT_3D ( 'NONE', #10, #179, #270 ) ;
#139 = PERSON_AND_ORGANIZATION ( #292, #117 ) ;
#140 = APPLICATION_CONTEXT ( 'configuration controlled 3d designs of mechanical parts and assemblies' ) ;
#141 = PERSON_AND_ORGANIZATION_ROLE ( 'design_supplier' ) ;
#142 = VERTEX_POINT ( 'NONE', #250 ) ;
#143 = APPROVAL ( #173, 'UNSPECIFIED' ) ;
#144 = DIRECTION ( 'NONE',  ( -0.0000000000000000000, -1.000000000000000000, -0.0000000000000000000 ) ) ;
#145 = DIRECTION ( 'NONE',  ( -0.0000000000000000000, -1.000000000000000000, -0.0000000000000000000 ) ) ;
#146 = CIRCLE ( 'NONE', #343, 1.727199999999989400 ) ;
#147 = VERTEX_POINT ( 'NONE', #214 ) ;
#148 = CARTESIAN_POINT ( 'NONE',  ( 0.0000000000000000000, 65.90000000000000600, 0.0000000000000000000 ) ) ;
#149 = ADVANCED_FACE ( 'NONE', ( #68 ), #30, .F. ) ;
#150 = DIRECTION ( 'NONE',  ( 0.0000000000000000000, -0.0000000000000000000, 1.000000000000000000 ) ) ;
#151 = ORIENTED_EDGE ( 'NONE', *, *, #174, .T. ) ;
#152 = DIRECTION ( 'NONE',  ( 0.0000000000000000000, 0.0000000000000000000, 1.000000000000000000 ) ) ;
#153 = EDGE_LOOP ( 'NONE', ( #289, #34, #151, #190 ) ) ;
#154 = EDGE_CURVE ( 'NONE', #142, #14, #100, .T. ) ;
#155 = ADVANCED_FACE ( 'NONE', ( #261 ), #177, .F. ) ;
#156 = CYLINDRICAL_SURFACE ( 'NONE', #256, 4.000000000000000000 ) ;
#157 = PRODUCT_DEFINITION_SHAPE ( 'NONE', 'NONE',  #4 ) ;
#158 = CARTESIAN_POINT ( 'NONE',  ( 2.115209951487305800E-016, 55.19200000000000000, -1.727199999999997800 ) ) ;
#159 = AXIS2_PLACEMENT_3D ( 'NONE', #264, #329, #170 ) ;
#160 = CARTESIAN_POINT ( 'NONE',  ( 0.0000000000000000000, -1.343780439768404900E-015, 0.0000000000000000000 ) ) ;
#161 = CARTESIAN_POINT ( 'NONE',  ( 0.0000000000000000000, 10.70799999999999500, 0.0000000000000000000 ) ) ;
#162 = ORIENTED_EDGE ( 'NONE', *, *, #193, .T. ) ;
#163 = EDGE_LOOP ( 'NONE', ( #248, #76, #79 ) ) ;
#164 = CIRCLE ( 'NONE', #138, 1.727199999999997800 ) ;
#165 = CC_DESIGN_APPROVAL ( #143, ( #124 ) ) ;
#166 = CIRCLE ( 'NONE', #317, 1.727199999999987900 ) ;
#167 = CYLINDRICAL_SURFACE ( 'NONE', #245, 1.727199999999988700 ) ;
#168 = ORIENTED_EDGE ( 'NONE', *, *, #28, .F. ) ;
#169 = PERSON_AND_ORGANIZATION_ROLE ( 'creator' ) ;
#170 = DIRECTION ( 'NONE',  ( 0.0000000000000000000, 0.0000000000000000000, 1.000000000000000000 ) ) ;
#171 = ORIENTED_EDGE ( 'NONE', *, *, #217, .F. ) ;
#172 = EDGE_LOOP ( 'NONE', ( #278, #25, #265, #130 ) ) ;
#173 = APPROVAL_STATUS ( 'not_yet_approved' ) ;
#174 = EDGE_CURVE ( 'NONE', #340, #14, #91, .T. ) ;
#175 = APPROVAL_STATUS ( 'not_yet_approved' ) ;
#176 = DIRECTION ( 'NONE',  ( 0.0000000000000000000, 0.0000000000000000000, -1.000000000000000000 ) ) ;
#177 = CYLINDRICAL_SURFACE ( 'NONE', #52, 1.727199999999993600 ) ;
#178 = DIRECTION ( 'NONE',  ( -0.0000000000000000000, -1.000000000000000000, -0.0000000000000000000 ) ) ;
#179 = DIRECTION ( 'NONE',  ( -0.0000000000000000000, 1.000000000000000000, -0.0000000000000000000 ) ) ;
#180 = CARTESIAN_POINT ( 'NONE',  ( 2.115209951487293500E-016, 10.70799999999999500, 1.727199999999987900 ) ) ;
#181 = AXIS2_PLACEMENT_3D ( 'NONE', #60, #63, #113 ) ;
#182 = ORIENTED_EDGE ( 'NONE', *, *, #246, .T. ) ;
#183 = DATE_AND_TIME ( #109, #232 ) ;
#184 = CC_DESIGN_PERSON_AND_ORGANIZATION_ASSIGNMENT ( #325, #268, ( #124 ) ) ;
#185 = DIRECTION ( 'NONE',  ( 0.0000000000000000000, 1.000000000000000000, 0.0000000000000000000 ) ) ;
#186 = ADVANCED_FACE ( 'NONE', ( #37 ), #310, .F. ) ;
#187 = VECTOR ( 'NONE', #282, 1000.000000000000000 ) ;
#188 = FACE_OUTER_BOUND ( 'NONE', #321, .T. ) ;
#189 = DIRECTION ( 'NONE',  ( -0.0000000000000000000, 1.000000000000000000, -0.0000000000000000000 ) ) ;
#190 = ORIENTED_EDGE ( 'NONE', *, *, #217, .T. ) ;
#191 = DIRECTION ( 'NONE',  ( 0.0000000000000000000, 0.0000000000000000000, -1.000000000000000000 ) ) ;
#192 = DIRECTION ( 'NONE',  ( 0.0000000000000000000, 1.000000000000000000, 0.0000000000000000000 ) ) ;
#193 = EDGE_CURVE ( 'NONE', #340, #328, #254, .T. ) ;
#194 = LINE ( 'NONE', #303, #301 ) ;
#195 = CYLINDRICAL_SURFACE ( 'NONE', #202, 4.000000000000000000 ) ;
#196 = COORDINATED_UNIVERSAL_TIME_OFFSET ( 6, 0, .BEHIND. ) ;
#197 = APPROVAL_STATUS ( 'not_yet_approved' ) ;
#198 = ORIENTED_EDGE ( 'NONE', *, *, #351, .T. ) ;
#199 =( LENGTH_UNIT ( ) NAMED_UNIT ( * ) SI_UNIT ( .MILLI., .METRE. ) );
#200 = FACE_OUTER_BOUND ( 'NONE', #247, .T. ) ;
#201 = PERSON_AND_ORGANIZATION_ROLE ( 'classification_officer' ) ;
#202 = AXIS2_PLACEMENT_3D ( 'NONE', #273, #119, #90 ) ;
#203 = APPROVAL_ROLE ( '' ) ;
#204 = MECHANICAL_CONTEXT ( 'NONE', #331, 'mechanical' ) ;
#205 = CC_DESIGN_PERSON_AND_ORGANIZATION_ASSIGNMENT ( #221, #141, ( #124 ) ) ;
#206 = FACE_OUTER_BOUND ( 'NONE', #348, .T. ) ;
#207 = PERSON_AND_ORGANIZATION ( #292, #117 ) ;
#208 = DIRECTION ( 'NONE',  ( 0.0000000000000000000, -0.5150380749100560400, -0.8571673007021112200 ) ) ;
#209 = UNCERTAINTY_MEASURE_WITH_UNIT (LENGTH_MEASURE( 1.000000000000000100E-005 ), #199, 'distance_accuracy_value', 'NONE');
#210 = DIRECTION ( 'NONE',  ( -0.0000000000000000000, -1.000000000000000000, -0.0000000000000000000 ) ) ;
#211 = LINE ( 'NONE', #255, #366 ) ;
#212 = CARTESIAN_POINT ( 'NONE',  ( 0.0000000000000000000, 65.90000000000000600, 0.0000000000000000000 ) ) ;
#213 = CLOSED_SHELL ( 'NONE', ( #339, #149, #155, #47, #312, #74, #71, #127, #375, #186, #41, #342 ) ) ;
#214 = CARTESIAN_POINT ( 'NONE',  ( 2.115209951487295700E-016, -1.343780439768404900E-015, 1.727199999999989400 ) ) ;
#215 = CARTESIAN_POINT ( 'NONE',  ( 0.0000000000000000000, 65.90000000000000600, 0.0000000000000000000 ) ) ;
#216 = DIRECTION ( 'NONE',  ( 0.0000000000000000000, 1.000000000000000000, 0.0000000000000000000 ) ) ;
#217 = EDGE_CURVE ( 'NONE', #14, #142, #334, .T. ) ;
#218 = CIRCLE ( 'NONE', #123, 1.727199999999989400 ) ;
#219 = FACE_OUTER_BOUND ( 'NONE', #237, .T. ) ;
#220 = CARTESIAN_POINT ( 'NONE',  ( 0.0000000000000000000, 10.70799999999999500, 0.0000000000000000000 ) ) ;
#221 = PERSON_AND_ORGANIZATION ( #292, #117 ) ;
#222 = CARTESIAN_POINT ( 'NONE',  ( -3.129859991055021700E-015, 11.74580646118439400, 0.0000000000000000000 ) ) ;
#223 = FACE_OUTER_BOUND ( 'NONE', #163, .T. ) ;
#224 = VERTEX_POINT ( 'NONE', #305 ) ;
#225 = APPROVAL_PERSON_ORGANIZATION ( #295, #143, #87 ) ;
#226 = AXIS2_PLACEMENT_3D ( 'NONE', #94, #145, #116 ) ;
#227 = DIRECTION ( 'NONE',  ( 0.0000000000000000000, -0.0000000000000000000, 1.000000000000000000 ) ) ;
#228 = ORIENTED_EDGE ( 'NONE', *, *, #290, .F. ) ;
#229 = CIRCLE ( 'NONE', #103, 1.727199999999987900 ) ;
#230 = APPROVAL_DATE_TIME ( #311, #143 ) ;
#231 = SECURITY_CLASSIFICATION ( '', '', #330 ) ;
#232 = LOCAL_TIME ( 15, 15, 11.00000000000000000, #58 ) ;
#233 = FACE_OUTER_BOUND ( 'NONE', #72, .T. ) ;
#234 = PERSON_AND_ORGANIZATION ( #292, #117 ) ;
#235 = AXIS2_PLACEMENT_3D ( 'NONE', #380, #192, #29 ) ;
#236 = PRODUCT ( 'D1002151_aLIGO_BSFM_PRISM_BONDING_SUPPORT_CYLINDER', 'D1002151_aLIGO_BSFM_PRISM_BONDING_SUPPORT_CYLINDER', '', ( #204 ) ) ;
#237 = EDGE_LOOP ( 'NONE', ( #279, #239, #354, #105 ) ) ;
#238 = DIRECTION ( 'NONE',  ( 0.0000000000000000000, 0.0000000000000000000, 1.000000000000000000 ) ) ;
#239 = ORIENTED_EDGE ( 'NONE', *, *, #132, .F. ) ;
#240 = EDGE_CURVE ( 'NONE', #271, #33, #110, .T. ) ;
#241 = FACE_OUTER_BOUND ( 'NONE', #322, .T. ) ;
#242 = LOCAL_TIME ( 15, 15, 11.00000000000000000, #374 ) ;
#243 = VERTEX_POINT ( 'NONE', #368 ) ;
#244 = CARTESIAN_POINT ( 'NONE',  ( 2.115209951487294700E-016, 0.0000000000000000000, 1.727199999999988700 ) ) ;
#245 = AXIS2_PLACEMENT_3D ( 'NONE', #65, #118, #8 ) ;
#246 = EDGE_CURVE ( 'NONE', #122, #224, #229, .T. ) ;
#247 = EDGE_LOOP ( 'NONE', ( #228, #54, #309 ) ) ;
#248 = ORIENTED_EDGE ( 'NONE', *, *, #5, .F. ) ;
#249 = LINE ( 'NONE', #6, #133 ) ;
#250 = CARTESIAN_POINT ( 'NONE',  ( 4.898587196589412800E-016, 0.0000000000000000000, 4.000000000000000000 ) ) ;
#251 = LOCAL_TIME ( 15, 15, 11.00000000000000000, #196 ) ;
#252 = CC_DESIGN_PERSON_AND_ORGANIZATION_ASSIGNMENT ( #234, #201, ( #231 ) ) ;
#253 = CARTESIAN_POINT ( 'NONE',  ( 0.0000000000000000000, 65.90000000000000600, -4.000000000000000000 ) ) ;
#254 = CIRCLE ( 'NONE', #15, 4.000000000000000000 ) ;
#255 = CARTESIAN_POINT ( 'NONE',  ( 0.0000000000000000000, 0.0000000000000000000, -1.727199999999988700 ) ) ;
#256 = AXIS2_PLACEMENT_3D ( 'NONE', #77, #258, #319 ) ;
#257 = CARTESIAN_POINT ( 'NONE',  ( 0.0000000000000000000, 55.19200000000000000, 1.727199999999997800 ) ) ;
#258 = DIRECTION ( 'NONE',  ( -0.0000000000000000000, -1.000000000000000000, -0.0000000000000000000 ) ) ;
#259 = EDGE_LOOP ( 'NONE', ( #112, #335, #17, #106 ) ) ;
#260 = EDGE_CURVE ( 'NONE', #147, #83, #218, .T. ) ;
#261 = FACE_OUTER_BOUND ( 'NONE', #367, .T. ) ;
#262 = FACE_OUTER_BOUND ( 'NONE', #259, .T. ) ;
#263 = DATE_AND_TIME ( #50, #251 ) ;
#264 = CARTESIAN_POINT ( 'NONE',  ( 0.0000000000000000000, 55.19200000000000000, 0.0000000000000000000 ) ) ;
#265 = ORIENTED_EDGE ( 'NONE', *, *, #371, .T. ) ;
#266 =( GEOMETRIC_REPRESENTATION_CONTEXT ( 3 ) GLOBAL_UNCERTAINTY_ASSIGNED_CONTEXT ( ( #209 ) ) GLOBAL_UNIT_ASSIGNED_CONTEXT ( ( #199, #299, #2 ) ) REPRESENTATION_CONTEXT ( 'NONE', 'WORKASPACE' ) );
#267 = EDGE_CURVE ( 'NONE', #39, #224, #56, .T. ) ;
#268 = PERSON_AND_ORGANIZATION_ROLE ( 'creator' ) ;
#269 = CC_DESIGN_DATE_AND_TIME_ASSIGNMENT ( #57, #111, ( #231 ) ) ;
#270 = DIRECTION ( 'NONE',  ( 0.0000000000000000000, 0.0000000000000000000, 1.000000000000000000 ) ) ;
#271 = VERTEX_POINT ( 'NONE', #92 ) ;
#272 = LINE ( 'NONE', #89, #284 ) ;
#273 = CARTESIAN_POINT ( 'NONE',  ( 0.0000000000000000000, 65.90000000000000600, 0.0000000000000000000 ) ) ;
#274 = DIRECTION ( 'NONE',  ( 0.0000000000000000000, 0.0000000000000000000, 1.000000000000000000 ) ) ;
#275 = CARTESIAN_POINT ( 'NONE',  ( 4.898587196589412800E-016, 65.90000000000000600, 4.000000000000000000 ) ) ;
#276 = DIRECTION ( 'NONE',  ( 0.0000000000000000000, 1.000000000000000000, 0.0000000000000000000 ) ) ;
#277 = AXIS2_PLACEMENT_3D ( 'NONE', #291, #108, #125 ) ;
#278 = ORIENTED_EDGE ( 'NONE', *, *, #327, .F. ) ;
#279 = ORIENTED_EDGE ( 'NONE', *, *, #281, .F. ) ;
#280 = DIRECTION ( 'NONE',  ( 0.0000000000000000000, 1.000000000000000000, 0.0000000000000000000 ) ) ;
#281 = EDGE_CURVE ( 'NONE', #122, #147, #344, .T. ) ;
#282 = DIRECTION ( 'NONE',  ( -0.0000000000000000000, -1.000000000000000000, -0.0000000000000000000 ) ) ;
#283 = VECTOR ( 'NONE', #208, 1000.000000000000000 ) ;
#284 = VECTOR ( 'NONE', #11, 1000.000000000000000 ) ;
#285 = MANIFOLD_SOLID_BREP ( '#8-32 Tapped Hole2', #213 ) ;
#286 = PERSON_AND_ORGANIZATION ( #292, #117 ) ;
#287 = CARTESIAN_POINT ( 'NONE',  ( 0.0000000000000000000, 10.70799999999999500, 0.0000000000000000000 ) ) ;
#288 = ORIENTED_EDGE ( 'NONE', *, *, #78, .T. ) ;
#289 = ORIENTED_EDGE ( 'NONE', *, *, #114, .F. ) ;
#290 = EDGE_CURVE ( 'NONE', #39, #122, #194, .T. ) ;
#291 = CARTESIAN_POINT ( 'NONE',  ( 0.0000000000000000000, 55.19200000000000000, 0.0000000000000000000 ) ) ;
#292 = PERSON ( 'UNSPECIFIED', 'UNSPECIFIED', 'UNSPECIFIED', ('UNSPECIFIED'), ('UNSPECIFIED'), ('UNSPECIFIED') ) ;
#293 = APPROVAL ( #197, 'UNSPECIFIED' ) ;
#294 = CALENDAR_DATE ( 2013, 8, 11 ) ;
#295 = PERSON_AND_ORGANIZATION ( #292, #117 ) ;
#296 = LINE ( 'NONE', #320, #324 ) ;
#297 = ORIENTED_EDGE ( 'NONE', *, *, #351, .F. ) ;
#298 = DIRECTION ( 'NONE',  ( -0.0000000000000000000, 1.000000000000000000, -0.0000000000000000000 ) ) ;
#299 =( NAMED_UNIT ( * ) PLANE_ANGLE_UNIT ( ) SI_UNIT ( $, .RADIAN. ) );
#300 = ORIENTED_EDGE ( 'NONE', *, *, #260, .F. ) ;
#301 = VECTOR ( 'NONE', #35, 1000.000000000000000 ) ;
#302 = AXIS2_PLACEMENT_3D ( 'NONE', #287, #102, #346 ) ;
#303 = CARTESIAN_POINT ( 'NONE',  ( 2.115209951487293500E-016, 10.70799999999999500, 1.727199999999987900 ) ) ;
#304 = LINE ( 'NONE', #158, #136 ) ;
#305 = CARTESIAN_POINT ( 'NONE',  ( 0.0000000000000000000, 10.70799999999999500, -1.727199999999987900 ) ) ;
#306 = DIRECTION ( 'NONE',  ( 0.0000000000000000000, 0.0000000000000000000, -1.000000000000000000 ) ) ;
#307 = EDGE_CURVE ( 'NONE', #243, #7, #164, .T. ) ;
#308 = CARTESIAN_POINT ( 'NONE',  ( 0.0000000000000000000, 0.0000000000000000000, 0.0000000000000000000 ) ) ;
#309 = ORIENTED_EDGE ( 'NONE', *, *, #132, .T. ) ;
#310 = CYLINDRICAL_SURFACE ( 'NONE', #70, 1.727199999999993600 ) ;
#311 = DATE_AND_TIME ( #294, #134 ) ;
#312 = ADVANCED_FACE ( 'NONE', ( #262 ), #195, .T. ) ;
#313 = CC_DESIGN_APPROVAL ( #293, ( #231 ) ) ;
#314 = CARTESIAN_POINT ( 'NONE',  ( 0.0000000000000000000, 0.0000000000000000000, 0.0000000000000000000 ) ) ;
#315 = CONICAL_SURFACE ( 'NONE', #323, 1.727199999999997800, 1.029744258676651900 ) ;
#316 = DATE_AND_TIME ( #13, #242 ) ;
#317 = AXIS2_PLACEMENT_3D ( 'NONE', #220, #46, #306 ) ;
#318 = CARTESIAN_POINT ( 'NONE',  ( 2.115209951487297900E-016, 65.90000000000000600, -1.727199999999989400 ) ) ;
#319 = DIRECTION ( 'NONE',  ( 0.0000000000000000000, 0.0000000000000000000, -1.000000000000000000 ) ) ;
#320 = CARTESIAN_POINT ( 'NONE',  ( 4.898587196589412800E-016, 65.90000000000000600, 4.000000000000000000 ) ) ;
#321 = EDGE_LOOP ( 'NONE', ( #137, #358, #349 ) ) ;
#322 = EDGE_LOOP ( 'NONE', ( #171, #357 ) ) ;
#323 = AXIS2_PLACEMENT_3D ( 'NONE', #378, #189, #53 ) ;
#324 = VECTOR ( 'NONE', #55, 1000.000000000000000 ) ;
#325 = PERSON_AND_ORGANIZATION ( #292, #117 ) ;
#326 = EDGE_LOOP ( 'NONE', ( #31, #300 ) ) ;
#327 = EDGE_CURVE ( 'NONE', #243, #33, #272, .T. ) ;
#328 = VERTEX_POINT ( 'NONE', #275 ) ;
#329 = DIRECTION ( 'NONE',  ( -0.0000000000000000000, 1.000000000000000000, -0.0000000000000000000 ) ) ;
#330 = SECURITY_CLASSIFICATION_LEVEL ( 'unclassified' ) ;
#331 = APPLICATION_CONTEXT ( 'configuration controlled 3d designs of mechanical parts and assemblies' ) ;
#332 = CC_DESIGN_SECURITY_CLASSIFICATION ( #231, ( #124 ) ) ;
#333 = DIRECTION ( 'NONE',  ( 0.0000000000000000000, 0.0000000000000000000, -1.000000000000000000 ) ) ;
#334 = CIRCLE ( 'NONE', #32, 4.000000000000000000 ) ;
#335 = ORIENTED_EDGE ( 'NONE', *, *, #114, .T. ) ;
#336 = DIRECTION ( 'NONE',  ( 0.0000000000000000000, 0.0000000000000000000, 1.000000000000000000 ) ) ;
#337 = AXIS2_PLACEMENT_3D ( 'NONE', #16, #276, #150 ) ;
#338 = DESIGN_CONTEXT ( 'detailed design', #140, 'design' ) ;
#339 = ADVANCED_FACE ( 'NONE', ( #206 ), #355, .F. ) ;
#340 = VERTEX_POINT ( 'NONE', #364 ) ;
#341 = DIRECTION ( 'NONE',  ( -0.0000000000000000000, -1.000000000000000000, -0.0000000000000000000 ) ) ;
#342 = ADVANCED_FACE ( 'NONE', ( #219 ), #167, .F. ) ;
#343 = AXIS2_PLACEMENT_3D ( 'NONE', #160, #379, #191 ) ;
#344 = LINE ( 'NONE', #244, #363 ) ;
#345 = APPROVAL_PERSON_ORGANIZATION ( #139, #27, #359 ) ;
#346 = DIRECTION ( 'NONE',  ( 0.0000000000000000000, 0.0000000000000000000, -1.000000000000000000 ) ) ;
#347 = CARTESIAN_POINT ( 'NONE',  ( 0.0000000000000000000, 65.90000000000000600, 0.0000000000000000000 ) ) ;
#348 = EDGE_LOOP ( 'NONE', ( #96, #88, #69, #168 ) ) ;
#349 = ORIENTED_EDGE ( 'NONE', *, *, #98, .T. ) ;
#350 = AXIS2_PLACEMENT_3D ( 'NONE', #3, #238, #115 ) ;
#351 = EDGE_CURVE ( 'NONE', #33, #271, #93, .T. ) ;
#352 = PLANE ( 'NONE',  #337 ) ;
#353 = PRODUCT_RELATED_PRODUCT_CATEGORY ( 'detail', '', ( #236 ) ) ;
#354 = ORIENTED_EDGE ( 'NONE', *, *, #28, .T. ) ;
#355 = CYLINDRICAL_SURFACE ( 'NONE', #226, 1.727199999999988700 ) ;
#356 = AXIS2_PLACEMENT_3D ( 'NONE', #161, #341, #43 ) ;
#357 = ORIENTED_EDGE ( 'NONE', *, *, #154, .F. ) ;
#358 = ORIENTED_EDGE ( 'NONE', *, *, #5, .T. ) ;
#359 = APPROVAL_ROLE ( '' ) ;
#360 = DATE_TIME_ROLE ( 'creation_date' ) ;
#361 = PERSON_AND_ORGANIZATION_ROLE ( 'design_owner' ) ;
#362 = APPLICATION_PROTOCOL_DEFINITION ( 'international standard', 'config_control_design', 1994, #331 ) ;
#363 = VECTOR ( 'NONE', #210, 1000.000000000000000 ) ;
#364 = CARTESIAN_POINT ( 'NONE',  ( 0.0000000000000000000, 65.90000000000000600, -4.000000000000000000 ) ) ;
#365 = APPROVAL_DATE_TIME ( #263, #27 ) ;
#366 = VECTOR ( 'NONE', #144, 1000.000000000000000 ) ;
#367 = EDGE_LOOP ( 'NONE', ( #48, #26, #198, #42 ) ) ;
#368 = CARTESIAN_POINT ( 'NONE',  ( 2.115209951487305800E-016, 55.19200000000000000, -1.727199999999997800 ) ) ;
#369 = DIRECTION ( 'NONE',  ( 0.0000000000000000000, 0.0000000000000000000, 1.000000000000000000 ) ) ;
#370 = CC_DESIGN_PERSON_AND_ORGANIZATION_ASSIGNMENT ( #64, #361, ( #236 ) ) ;
#371 = EDGE_CURVE ( 'NONE', #7, #271, #249, .T. ) ;
#372 = ORIENTED_EDGE ( 'NONE', *, *, #240, .F. ) ;
#373 = SHAPE_DEFINITION_REPRESENTATION ( #157, #135 ) ;
#374 = COORDINATED_UNIVERSAL_TIME_OFFSET ( 6, 0, .BEHIND. ) ;
#375 = ADVANCED_FACE ( 'NONE', ( #188 ), #18, .F. ) ;
#376 = FACE_BOUND ( 'NONE', #22, .T. ) ;
#377 = AXIS2_PLACEMENT_3D ( 'NONE', #314, #216, #274 ) ;
#378 = CARTESIAN_POINT ( 'NONE',  ( 0.0000000000000000000, 55.19200000000000000, 0.0000000000000000000 ) ) ;
#379 = DIRECTION ( 'NONE',  ( -0.0000000000000000000, -1.000000000000000000, -0.0000000000000000000 ) ) ;
#380 = CARTESIAN_POINT ( 'NONE',  ( 0.0000000000000000000, 65.90000000000000600, 0.0000000000000000000 ) ) ;
#381 = EDGE_LOOP ( 'NONE', ( #86, #120, #182 ) ) ;
#382 = COORDINATED_UNIVERSAL_TIME_OFFSET ( 6, 0, .BEHIND. ) ;
#383 = CC_DESIGN_DATE_AND_TIME_ASSIGNMENT ( #183, #360, ( #4 ) ) ;
ENDSEC;
END-ISO-10303-21;
