ISO-10303-21;
HEADER;
FILE_DESCRIPTION (( 'STEP AP214' ),
    '1' );
FILE_NAME ('D1002444_aLIGO_SUS_HSTS_UPPER BLADE BAKING FIXTURE STANDOFF, HSTS.STEP',
    '2011-02-18T17:37:33',
    ( '' ),
    ( '' ),
    'SwSTEP 2.0',
    'SolidWorks 2010',
    '' );
FILE_SCHEMA (( 'AUTOMOTIVE_DESIGN' ));
ENDSEC;

DATA;
#1 = CARTESIAN_POINT ( 'NONE',  ( -0.2499999999999998100, -0.5000000000000000000, -0.2499999999999998100 ) ) ;
#2 = CARTESIAN_POINT ( 'NONE',  ( -0.2499999999999998100, 0.4999999999999998300, -0.2499999999999998100 ) ) ;
#3 = DIRECTION ( 'NONE',  ( 2.048885995248197700E-016, 0.0000000000000000000, 1.000000000000000000 ) ) ;
#4 =( NAMED_UNIT ( * ) SI_UNIT ( $, .STERADIAN. ) SOLID_ANGLE_UNIT ( ) );
#5 =( NAMED_UNIT ( * ) PLANE_ANGLE_UNIT ( ) SI_UNIT ( $, .RADIAN. ) );
#6 =( CONVERSION_BASED_UNIT ( 'INCH', #216 ) LENGTH_UNIT ( ) NAMED_UNIT ( #269 ) );
#7 =( LENGTH_UNIT ( ) NAMED_UNIT ( * ) SI_UNIT ( $, .METRE. ) );
#8 = SURFACE_STYLE_USAGE ( .BOTH. , #9 ) ;
#9 = SURFACE_SIDE_STYLE ('',( #211 ) ) ;
#10 = FILL_AREA_STYLE ('',( #26 ) ) ;
#11 = CARTESIAN_POINT ( 'NONE',  ( -0.2499999999999998100, 0.4999999999999998300, -0.2499999999999998100 ) ) ;
#12 = DIRECTION ( 'NONE',  ( 0.0000000000000000000, 0.0000000000000000000, 1.000000000000000000 ) ) ;
#13 = DIRECTION ( 'NONE',  ( 0.0000000000000000000, 1.000000000000000000, 0.0000000000000000000 ) ) ;
#14 = PLANE ( 'NONE',  #315 ) ;
#15 = CARTESIAN_POINT ( 'NONE',  ( 0.2499999999999998100, -0.5000000000000000000, 0.2499999999999998100 ) ) ;
#16 = CARTESIAN_POINT ( 'NONE',  ( 0.0000000000000000000, 0.4999999999999998300, 0.0000000000000000000 ) ) ;
#17 =( NAMED_UNIT ( * ) SI_UNIT ( $, .STERADIAN. ) SOLID_ANGLE_UNIT ( ) );
#18 =( NAMED_UNIT ( * ) PLANE_ANGLE_UNIT ( ) SI_UNIT ( $, .RADIAN. ) );
#19 =( CONVERSION_BASED_UNIT ( 'INCH', #209 ) LENGTH_UNIT ( ) NAMED_UNIT ( #268 ) );
#20 =( LENGTH_UNIT ( ) NAMED_UNIT ( * ) SI_UNIT ( $, .METRE. ) );
#21 = SURFACE_STYLE_USAGE ( .BOTH. , #22 ) ;
#22 = SURFACE_SIDE_STYLE ('',( #191 ) ) ;
#23 = SURFACE_SIDE_STYLE ('',( #252 ) ) ;
#24 = FILL_AREA_STYLE ('',( #25 ) ) ;
#25 = FILL_AREA_STYLE_COLOUR ( '', #189 ) ;
#26 = FILL_AREA_STYLE_COLOUR ( '', #212 ) ;
#27 = DIRECTION ( 'NONE',  ( -1.000000000000000000, 0.0000000000000000000, 0.0000000000000000000 ) ) ;
#28 = DIRECTION ( 'NONE',  ( 0.0000000000000000000, 0.0000000000000000000, -1.000000000000000000 ) ) ;
#29 = PLANE ( 'NONE',  #318 ) ;
#30 = CARTESIAN_POINT ( 'NONE',  ( -0.2499999999999998100, 0.4999999999999998300, 0.2499999999999998100 ) ) ;
#31 = DIRECTION ( 'NONE',  ( 0.0000000000000000000, 1.000000000000000000, 0.0000000000000000000 ) ) ;
#32 = CARTESIAN_POINT ( 'NONE',  ( 0.0000000000000000000, 0.4999999999999998300, 0.0000000000000000000 ) ) ;
#33 = FILL_AREA_STYLE_COLOUR ( '', #249 ) ;
#34 =( NAMED_UNIT ( * ) SI_UNIT ( $, .STERADIAN. ) SOLID_ANGLE_UNIT ( ) );
#35 =( NAMED_UNIT ( * ) PLANE_ANGLE_UNIT ( ) SI_UNIT ( $, .RADIAN. ) );
#36 =( CONVERSION_BASED_UNIT ( 'INCH', #196 ) LENGTH_UNIT ( ) NAMED_UNIT ( #267 ) );
#37 =( LENGTH_UNIT ( ) NAMED_UNIT ( * ) SI_UNIT ( $, .METRE. ) );
#38 = SURFACE_STYLE_USAGE ( .BOTH. , #39 ) ;
#39 = SURFACE_SIDE_STYLE ('',( #205 ) ) ;
#40 = FILL_AREA_STYLE ('',( #41 ) ) ;
#41 = FILL_AREA_STYLE_COLOUR ( '', #203 ) ;
#42 = DIRECTION ( 'NONE',  ( 0.0000000000000000000, 0.0000000000000000000, 1.000000000000000000 ) ) ;
#43 = DIRECTION ( 'NONE',  ( -2.048885995248197700E-016, 0.0000000000000000000, -1.000000000000000000 ) ) ;
#44 = DIRECTION ( 'NONE',  ( 1.000000000000000000, 0.0000000000000000000, -2.048885995248197700E-016 ) ) ;
#45 = DIRECTION ( 'NONE',  ( 1.000000000000000000, 0.0000000000000000000, 0.0000000000000000000 ) ) ;
#46 = DIRECTION ( 'NONE',  ( 0.0000000000000000000, 0.0000000000000000000, 1.000000000000000000 ) ) ;
#47 = CARTESIAN_POINT ( 'NONE',  ( 0.0000000000000000000, 0.5000000000000001100, 0.0000000000000000000 ) ) ;
#48 = DIRECTION ( 'NONE',  ( 1.000000000000000000, 0.0000000000000000000, 0.0000000000000000000 ) ) ;
#49 = DIRECTION ( 'NONE',  ( 0.0000000000000000000, 0.0000000000000000000, 1.000000000000000000 ) ) ;
#50 = DIRECTION ( 'NONE',  ( 0.0000000000000000000, 1.000000000000000000, 0.0000000000000000000 ) ) ;
#51 = CARTESIAN_POINT ( 'NONE',  ( -0.2499999999999998100, 0.4999999999999998300, -0.2499999999999998100 ) ) ;
#52 = DIRECTION ( 'NONE',  ( 0.0000000000000000000, 0.0000000000000000000, 1.000000000000000000 ) ) ;
#53 = DIRECTION ( 'NONE',  ( 0.0000000000000000000, 1.000000000000000000, 0.0000000000000000000 ) ) ;
#54 = DIRECTION ( 'NONE',  ( 0.0000000000000000000, 0.0000000000000000000, 1.000000000000000000 ) ) ;
#55 = DIRECTION ( 'NONE',  ( 0.0000000000000000000, 1.000000000000000000, 0.0000000000000000000 ) ) ;
#56 = PLANE ( 'NONE',  #288 ) ;
#57 = PLANE ( 'NONE',  #304 ) ;
#58 = DIRECTION ( 'NONE',  ( 6.829619984160658000E-017, 0.0000000000000000000, 1.000000000000000000 ) ) ;
#59 = DIRECTION ( 'NONE',  ( -1.000000000000000000, 0.0000000000000000000, 6.829619984160658000E-017 ) ) ;
#60 = CARTESIAN_POINT ( 'NONE',  ( -0.2499999999999998100, 0.4999999999999998300, -0.2499999999999998100 ) ) ;
#61 = PLANE ( 'NONE',  #286 ) ;
#62 = CARTESIAN_POINT ( 'NONE',  ( 0.2499999999999998100, 0.4999999999999998300, -0.2499999999999998100 ) ) ;
#63 = CARTESIAN_POINT ( 'NONE',  ( 0.2499999999999998100, 0.4999999999999998300, 0.2499999999999998100 ) ) ;
#64 = PLANE ( 'NONE',  #299 ) ;
#65 = CARTESIAN_POINT ( 'NONE',  ( 0.2499999999999998100, 0.4999999999999998300, -0.2499999999999998100 ) ) ;
#66 = CARTESIAN_POINT ( 'NONE',  ( 0.2499999999999998100, -0.5000000000000000000, 0.2499999999999998100 ) ) ;
#67 = CARTESIAN_POINT ( 'NONE',  ( -0.2499999999999998100, 0.4999999999999998300, 0.2499999999999998100 ) ) ;
#68 = CARTESIAN_POINT ( 'NONE',  ( 0.2499999999999998100, -0.5000000000000000000, -0.2499999999999998100 ) ) ;
#69 = CARTESIAN_POINT ( 'NONE',  ( 0.2499999999999998100, 0.4999999999999998300, 0.2499999999999998100 ) ) ;
#70 = CARTESIAN_POINT ( 'NONE',  ( -0.2499999999999998100, -0.5000000000000000000, -0.2499999999999998100 ) ) ;
#71 = CARTESIAN_POINT ( 'NONE',  ( 0.0000000000000000000, -0.5000000000000001100, 0.08649999999999953600 ) ) ;
#72 = CARTESIAN_POINT ( 'NONE',  ( 1.059319481262454800E-017, -0.5000000000000001100, -0.08649999999999953600 ) ) ;
#73 = VERTEX_POINT ( 'NONE', #93 ) ;
#74 = DIRECTION ( 'NONE',  ( 0.0000000000000000000, 1.000000000000000000, 0.0000000000000000000 ) ) ;
#75 = CARTESIAN_POINT ( 'NONE',  ( 1.059319481262454800E-017, 0.5000000000000001100, -0.08649999999999953600 ) ) ;
#76 = VERTEX_POINT ( 'NONE', #75 ) ;
#77 = VERTEX_POINT ( 'NONE', #98 ) ;
#78 = VERTEX_POINT ( 'NONE', #72 ) ;
#79 = VERTEX_POINT ( 'NONE', #108 ) ;
#80 = VERTEX_POINT ( 'NONE', #71 ) ;
#81 = SURFACE_STYLE_USAGE ( .BOTH. , #23 ) ;
#82 = CARTESIAN_POINT ( 'NONE',  ( -0.2499999999999998100, 0.4999999999999998300, -0.2499999999999998100 ) ) ;
#83 = CARTESIAN_POINT ( 'NONE',  ( 0.2499999999999998100, -0.5000000000000000000, -0.2499999999999998100 ) ) ;
#84 = VERTEX_POINT ( 'NONE', #97 ) ;
#85 = DIRECTION ( 'NONE',  ( -6.829619984160658000E-017, 0.0000000000000000000, -1.000000000000000000 ) ) ;
#86 = VERTEX_POINT ( 'NONE', #69 ) ;
#87 = FILL_AREA_STYLE ('',( #33 ) ) ;
#88 = CARTESIAN_POINT ( 'NONE',  ( -0.2499999999999998100, 0.4999999999999998300, 0.2499999999999998100 ) ) ;
#89 = DIRECTION ( 'NONE',  ( -1.000000000000000000, 0.0000000000000000000, 0.0000000000000000000 ) ) ;
#90 = DIRECTION ( 'NONE',  ( 0.0000000000000000000, -1.000000000000000000, -0.0000000000000000000 ) ) ;
#91 = VERTEX_POINT ( 'NONE', #70 ) ;
#92 =( CONVERSION_BASED_UNIT ( 'INCH', #248 ) LENGTH_UNIT ( ) NAMED_UNIT ( #265 ) );
#93 = CARTESIAN_POINT ( 'NONE',  ( -0.2499999999999998100, -0.5000000000000000000, 0.2499999999999998100 ) ) ;
#94 =( NAMED_UNIT ( * ) PLANE_ANGLE_UNIT ( ) SI_UNIT ( $, .RADIAN. ) );
#95 =( NAMED_UNIT ( * ) SI_UNIT ( $, .STERADIAN. ) SOLID_ANGLE_UNIT ( ) );
#96 = VERTEX_POINT ( 'NONE', #68 ) ;
#97 = CARTESIAN_POINT ( 'NONE',  ( -0.2499999999999998100, 0.4999999999999998300, -0.2499999999999998100 ) ) ;
#98 = CARTESIAN_POINT ( 'NONE',  ( -0.2499999999999998100, 0.4999999999999998300, 0.2499999999999998100 ) ) ;
#99 = CARTESIAN_POINT ( 'NONE',  ( 0.0000000000000000000, 0.4999999999999998300, 0.08649999999999950800 ) ) ;
#100 = DIRECTION ( 'NONE',  ( 0.0000000000000000000, 1.000000000000000000, 0.0000000000000000000 ) ) ;
#101 = VERTEX_POINT ( 'NONE', #66 ) ;
#102 = CARTESIAN_POINT ( 'NONE',  ( 0.2499999999999998100, 0.4999999999999998300, -0.2499999999999998100 ) ) ;
#103 = DIRECTION ( 'NONE',  ( 0.0000000000000000000, -1.000000000000000000, -0.0000000000000000000 ) ) ;
#104 = APPLICATION_PROTOCOL_DEFINITION ( 'draft international standard', 'automotive_design', 1998, #121 ) ;
#105 = PRODUCT_CONTEXT ( 'NONE', #121, 'mechanical' ) ;
#106 = CARTESIAN_POINT ( 'NONE',  ( -0.2499999999999998100, -0.5000000000000000000, -0.2499999999999998100 ) ) ;
#107 = VERTEX_POINT ( 'NONE', #65 ) ;
#108 = CARTESIAN_POINT ( 'NONE',  ( 0.0000000000000000000, 0.5000000000000001100, 0.08649999999999953600 ) ) ;
#109 = DIRECTION ( 'NONE',  ( 1.000000000000000000, 0.0000000000000000000, 0.0000000000000000000 ) ) ;
#110 =( LENGTH_UNIT ( ) NAMED_UNIT ( * ) SI_UNIT ( $, .METRE. ) );
#111 =( CONVERSION_BASED_UNIT ( 'INCH', #254 ) LENGTH_UNIT ( ) NAMED_UNIT ( #266 ) );
#112 =( NAMED_UNIT ( * ) PLANE_ANGLE_UNIT ( ) SI_UNIT ( $, .RADIAN. ) );
#113 =( NAMED_UNIT ( * ) SI_UNIT ( $, .STERADIAN. ) SOLID_ANGLE_UNIT ( ) );
#114 = CARTESIAN_POINT ( 'NONE',  ( 0.2499999999999998100, 0.4999999999999998300, 0.2499999999999998100 ) ) ;
#115 = DIRECTION ( 'NONE',  ( 0.0000000000000000000, 0.0000000000000000000, 1.000000000000000000 ) ) ;
#116 = DIRECTION ( 'NONE',  ( 1.000000000000000000, 0.0000000000000000000, 0.0000000000000000000 ) ) ;
#117 = APPLICATION_PROTOCOL_DEFINITION ( 'draft international standard', 'automotive_design', 1998, #120 ) ;
#118 = DIRECTION ( 'NONE',  ( 0.0000000000000000000, -1.000000000000000000, -0.0000000000000000000 ) ) ;
#119 = CARTESIAN_POINT ( 'NONE',  ( 0.0000000000000000000, -0.5000000000000001100, 0.0000000000000000000 ) ) ;
#120 = APPLICATION_CONTEXT ( 'automotive_design' ) ;
#121 = APPLICATION_CONTEXT ( 'automotive_design' ) ;
#122 = CARTESIAN_POINT ( 'NONE',  ( 0.0000000000000000000, 0.0000000000000000000, 0.0000000000000000000 ) ) ;
#123 = CARTESIAN_POINT ( 'NONE',  ( -0.2499999999999998100, -0.5000000000000000000, 0.2499999999999998100 ) ) ;
#124 = DIRECTION ( 'NONE',  ( -1.000000000000000000, 0.0000000000000000000, 0.0000000000000000000 ) ) ;
#125 = CARTESIAN_POINT ( 'NONE',  ( 1.059319481262454500E-017, 0.4999999999999998300, -0.08649999999999950800 ) ) ;
#126 = DIRECTION ( 'NONE',  ( 0.0000000000000000000, 0.0000000000000000000, -1.000000000000000000 ) ) ;
#127 = DIRECTION ( 'NONE',  ( 0.0000000000000000000, -1.000000000000000000, -0.0000000000000000000 ) ) ;
#128 = CARTESIAN_POINT ( 'NONE',  ( 0.2499999999999998100, 0.4999999999999998300, -0.2499999999999998100 ) ) ;
#129 = DIRECTION ( 'NONE',  ( 2.048885995248197700E-016, 0.0000000000000000000, 1.000000000000000000 ) ) ;
#130 = DIRECTION ( 'NONE',  ( -6.829619984160658000E-017, 0.0000000000000000000, -1.000000000000000000 ) ) ;
#131 = CARTESIAN_POINT ( 'NONE',  ( 0.0000000000000000000, -0.5000000000000001100, 0.0000000000000000000 ) ) ;
#132 =( LENGTH_UNIT ( ) NAMED_UNIT ( * ) SI_UNIT ( $, .METRE. ) );
#133 = DIRECTION ( 'NONE',  ( 0.0000000000000000000, 0.0000000000000000000, 1.000000000000000000 ) ) ;
#134 = DIRECTION ( 'NONE',  ( 0.0000000000000000000, 1.000000000000000000, 0.0000000000000000000 ) ) ;
#135 = DIRECTION ( 'NONE',  ( 0.0000000000000000000, -1.000000000000000000, -0.0000000000000000000 ) ) ;
#136 = CARTESIAN_POINT ( 'NONE',  ( 0.0000000000000000000, 0.5000000000000001100, 0.0000000000000000000 ) ) ;
#137 = DIRECTION ( 'NONE',  ( 0.0000000000000000000, 0.0000000000000000000, -1.000000000000000000 ) ) ;
#138 = DIRECTION ( 'NONE',  ( 0.0000000000000000000, -1.000000000000000000, -0.0000000000000000000 ) ) ;
#139 = ORIENTED_EDGE ( 'NONE', *, *, #298, .F. ) ;
#140 = ORIENTED_EDGE ( 'NONE', *, *, #291, .F. ) ;
#141 = ORIENTED_EDGE ( 'NONE', *, *, #295, .F. ) ;
#142 = ORIENTED_EDGE ( 'NONE', *, *, #308, .T. ) ;
#143 = ORIENTED_EDGE ( 'NONE', *, *, #301, .F. ) ;
#144 = ORIENTED_EDGE ( 'NONE', *, *, #302, .F. ) ;
#145 = ORIENTED_EDGE ( 'NONE', *, *, #290, .T. ) ;
#146 = ORIENTED_EDGE ( 'NONE', *, *, #308, .F. ) ;
#147 = ORIENTED_EDGE ( 'NONE', *, *, #294, .T. ) ;
#148 = ORIENTED_EDGE ( 'NONE', *, *, #284, .F. ) ;
#149 = ORIENTED_EDGE ( 'NONE', *, *, #297, .F. ) ;
#150 = ORIENTED_EDGE ( 'NONE', *, *, #300, .T. ) ;
#151 = ORIENTED_EDGE ( 'NONE', *, *, #302, .T. ) ;
#152 = ORIENTED_EDGE ( 'NONE', *, *, #292, .T. ) ;
#153 = ORIENTED_EDGE ( 'NONE', *, *, #303, .T. ) ;
#154 = ORIENTED_EDGE ( 'NONE', *, *, #290, .F. ) ;
#155 = ORIENTED_EDGE ( 'NONE', *, *, #300, .F. ) ;
#156 = ORIENTED_EDGE ( 'NONE', *, *, #305, .F. ) ;
#157 = ORIENTED_EDGE ( 'NONE', *, *, #296, .T. ) ;
#158 = ORIENTED_EDGE ( 'NONE', *, *, #307, .T. ) ;
#159 = ORIENTED_EDGE ( 'NONE', *, *, #297, .T. ) ;
#160 = ORIENTED_EDGE ( 'NONE', *, *, #284, .T. ) ;
#161 = CLOSED_SHELL ( 'NONE', ( #261, #257, #259, #260, #262, #258, #264, #263 ) ) ;
#162 = ORIENTED_EDGE ( 'NONE', *, *, #307, .F. ) ;
#163 = EDGE_LOOP ( 'NONE', ( #152, #146, #148, #145 ) ) ;
#164 = FACE_OUTER_BOUND ( 'NONE', #165, .T. ) ;
#165 = EDGE_LOOP ( 'NONE', ( #158, #155, #156, #151 ) ) ;
#166 = EDGE_LOOP ( 'NONE', ( #153, #154, #149, #150 ) ) ;
#167 = EDGE_LOOP ( 'NONE', ( #179, #182 ) ) ;
#168 = EDGE_LOOP ( 'NONE', ( #188, #157, #174, #139 ) ) ;
#169 = EDGE_LOOP ( 'NONE', ( #147, #144, #143, #142 ) ) ;
#170 = EDGE_LOOP ( 'NONE', ( #184, #159, #160, #185 ) ) ;
#171 = EDGE_LOOP ( 'NONE', ( #162, #180, #176, #183 ) ) ;
#172 = EDGE_LOOP ( 'NONE', ( #181, #177, #178, #175 ) ) ;
#173 = EDGE_LOOP ( 'NONE', ( #141, #140 ) ) ;
#174 = ORIENTED_EDGE ( 'NONE', *, *, #291, .T. ) ;
#175 = ORIENTED_EDGE ( 'NONE', *, *, #295, .T. ) ;
#176 = ORIENTED_EDGE ( 'NONE', *, *, #292, .F. ) ;
#177 = ORIENTED_EDGE ( 'NONE', *, *, #306, .T. ) ;
#178 = ORIENTED_EDGE ( 'NONE', *, *, #298, .T. ) ;
#179 = ORIENTED_EDGE ( 'NONE', *, *, #293, .F. ) ;
#180 = ORIENTED_EDGE ( 'NONE', *, *, #294, .F. ) ;
#181 = ORIENTED_EDGE ( 'NONE', *, *, #296, .F. ) ;
#182 = ORIENTED_EDGE ( 'NONE', *, *, #306, .F. ) ;
#183 = ORIENTED_EDGE ( 'NONE', *, *, #303, .F. ) ;
#184 = ORIENTED_EDGE ( 'NONE', *, *, #305, .T. ) ;
#185 = ORIENTED_EDGE ( 'NONE', *, *, #301, .T. ) ;
#186 = FACE_OUTER_BOUND ( 'NONE', #163, .T. ) ;
#187 = FACE_OUTER_BOUND ( 'NONE', #170, .T. ) ;
#188 = ORIENTED_EDGE ( 'NONE', *, *, #293, .T. ) ;
#189 = COLOUR_RGB ( '',1.000000000000000000, 0.0000000000000000000, 0.0000000000000000000 ) ;
#190 = PRESENTATION_STYLE_ASSIGNMENT (( #21 ) ) ;
#191 = SURFACE_STYLE_FILL_AREA ( #24 ) ;
#192 = STYLED_ITEM ( 'NONE', ( #207 ), #270 ) ;
#193 = CYLINDRICAL_SURFACE ( 'NONE', #317, 0.08649999999999950800 ) ;
#194 =( GEOMETRIC_REPRESENTATION_CONTEXT ( 3 ) GLOBAL_UNCERTAINTY_ASSIGNED_CONTEXT ( ( #274 ) ) GLOBAL_UNIT_ASSIGNED_CONTEXT ( ( #36, #35, #34 ) ) REPRESENTATION_CONTEXT ( 'NONE', 'WORKASPACE' ) );
#195 = FACE_OUTER_BOUND ( 'NONE', #172, .T. ) ;
#196 = LENGTH_MEASURE_WITH_UNIT ( LENGTH_MEASURE( 0.02539999999999999900 ), #37 );
#197 = PRESENTATION_STYLE_ASSIGNMENT (( #38 ) ) ;
#198 = FACE_OUTER_BOUND ( 'NONE', #166, .T. ) ;
#199 = FACE_BOUND ( 'NONE', #173, .T. ) ;
#200 = FACE_OUTER_BOUND ( 'NONE', #169, .T. ) ;
#201 = STYLED_ITEM ( 'NONE', ( #197 ), #261 ) ;
#202 = FACE_BOUND ( 'NONE', #167, .T. ) ;
#203 = COLOUR_RGB ( '',1.000000000000000000, 0.0000000000000000000, 0.0000000000000000000 ) ;
#204 = FACE_OUTER_BOUND ( 'NONE', #168, .T. ) ;
#205 = SURFACE_STYLE_FILL_AREA ( #40 ) ;
#206 = CYLINDRICAL_SURFACE ( 'NONE', #320, 0.08649999999999950800 ) ;
#207 = PRESENTATION_STYLE_ASSIGNMENT (( #8 ) ) ;
#208 = STYLED_ITEM ( 'NONE', ( #190 ), #263 ) ;
#209 = LENGTH_MEASURE_WITH_UNIT ( LENGTH_MEASURE( 0.02539999999999999900 ), #20 );
#210 =( GEOMETRIC_REPRESENTATION_CONTEXT ( 3 ) GLOBAL_UNCERTAINTY_ASSIGNED_CONTEXT ( ( #275 ) ) GLOBAL_UNIT_ASSIGNED_CONTEXT ( ( #19, #18, #17 ) ) REPRESENTATION_CONTEXT ( 'NONE', 'WORKASPACE' ) );
#211 = SURFACE_STYLE_FILL_AREA ( #10 ) ;
#212 = COLOUR_RGB ( '',1.000000000000000000, 0.0000000000000000000, 0.0000000000000000000 ) ;
#213 = FACE_OUTER_BOUND ( 'NONE', #171, .T. ) ;
#214 = VECTOR ( 'NONE', #3, 39.37007874015748100 ) ;
#215 = LINE ( 'NONE', #11, #214 ) ;
#216 = LENGTH_MEASURE_WITH_UNIT ( LENGTH_MEASURE( 0.02539999999999999900 ), #7 );
#217 =( GEOMETRIC_REPRESENTATION_CONTEXT ( 3 ) GLOBAL_UNCERTAINTY_ASSIGNED_CONTEXT ( ( #273 ) ) GLOBAL_UNIT_ASSIGNED_CONTEXT ( ( #6, #5, #4 ) ) REPRESENTATION_CONTEXT ( 'NONE', 'WORKASPACE' ) );
#218 = LINE ( 'NONE', #2, #219 ) ;
#219 = VECTOR ( 'NONE', #138, 39.37007874015748100 ) ;
#220 = VECTOR ( 'NONE', #85, 39.37007874015748100 ) ;
#221 = LINE ( 'NONE', #123, #223 ) ;
#222 = VECTOR ( 'NONE', #129, 39.37007874015748100 ) ;
#223 = VECTOR ( 'NONE', #45, 39.37007874015748100 ) ;
#224 = CIRCLE ( 'NONE', #289, 0.08649999999999953600 ) ;
#225 = LINE ( 'NONE', #1, #222 ) ;
#226 = VECTOR ( 'NONE', #74, 39.37007874015748100 ) ;
#227 = CIRCLE ( 'NONE', #283, 0.08649999999999953600 ) ;
#228 = LINE ( 'NONE', #106, #242 ) ;
#229 = LINE ( 'NONE', #125, #226 ) ;
#230 = LINE ( 'NONE', #67, #239 ) ;
#231 = LINE ( 'NONE', #82, #234 ) ;
#232 = CIRCLE ( 'NONE', #319, 0.08649999999999953600 ) ;
#233 = LINE ( 'NONE', #99, #235 ) ;
#234 = VECTOR ( 'NONE', #89, 39.37007874015748100 ) ;
#235 = VECTOR ( 'NONE', #100, 39.37007874015748100 ) ;
#236 = VECTOR ( 'NONE', #103, 39.37007874015748100 ) ;
#237 = LINE ( 'NONE', #102, #236 ) ;
#238 = LINE ( 'NONE', #83, #220 ) ;
#239 = VECTOR ( 'NONE', #109, 39.37007874015748100 ) ;
#240 = VECTOR ( 'NONE', #118, 39.37007874015748100 ) ;
#241 = LINE ( 'NONE', #114, #240 ) ;
#242 = VECTOR ( 'NONE', #124, 39.37007874015748100 ) ;
#243 = LINE ( 'NONE', #128, #244 ) ;
#244 = VECTOR ( 'NONE', #130, 39.37007874015748100 ) ;
#245 = CIRCLE ( 'NONE', #314, 0.08649999999999953600 ) ;
#246 = VECTOR ( 'NONE', #90, 39.37007874015748100 ) ;
#247 = LINE ( 'NONE', #88, #246 ) ;
#248 = LENGTH_MEASURE_WITH_UNIT ( LENGTH_MEASURE( 0.02539999999999999900 ), #132 );
#249 = COLOUR_RGB ( '',1.000000000000000000, 0.0000000000000000000, 0.0000000000000000000 ) ;
#250 =( GEOMETRIC_REPRESENTATION_CONTEXT ( 3 ) GLOBAL_UNCERTAINTY_ASSIGNED_CONTEXT ( ( #272 ) ) GLOBAL_UNIT_ASSIGNED_CONTEXT ( ( #92, #94, #95 ) ) REPRESENTATION_CONTEXT ( 'NONE', 'WORKASPACE' ) );
#251 = PRESENTATION_STYLE_ASSIGNMENT (( #81 ) ) ;
#252 = SURFACE_STYLE_FILL_AREA ( #87 ) ;
#253 = STYLED_ITEM ( 'NONE', ( #251 ), #271 ) ;
#254 = LENGTH_MEASURE_WITH_UNIT ( LENGTH_MEASURE( 0.02539999999999999900 ), #110 );
#255 =( GEOMETRIC_REPRESENTATION_CONTEXT ( 3 ) GLOBAL_UNCERTAINTY_ASSIGNED_CONTEXT ( ( #276 ) ) GLOBAL_UNIT_ASSIGNED_CONTEXT ( ( #111, #112, #113 ) ) REPRESENTATION_CONTEXT ( 'NONE', 'WORKASPACE' ) );
#256 = SHAPE_DEFINITION_REPRESENTATION ( #278, #271 ) ;
#257 = ADVANCED_FACE ( 'NONE', ( #164 ), #61, .F. ) ;
#258 = ADVANCED_FACE ( 'NONE', ( #199, #187 ), #56, .T. ) ;
#259 = ADVANCED_FACE ( 'NONE', ( #198 ), #64, .F. ) ;
#260 = ADVANCED_FACE ( 'NONE', ( #186 ), #57, .F. ) ;
#261 = ADVANCED_FACE ( 'NONE', ( #204 ), #206, .F. ) ;
#262 = ADVANCED_FACE ( 'NONE', ( #200 ), #29, .F. ) ;
#263 = ADVANCED_FACE ( 'NONE', ( #195 ), #193, .F. ) ;
#264 = ADVANCED_FACE ( 'NONE', ( #202, #213 ), #14, .F. ) ;
#265 = DIMENSIONAL_EXPONENTS ( 1.000000000000000000, 0.0000000000000000000, 0.0000000000000000000, 0.0000000000000000000, 0.0000000000000000000, 0.0000000000000000000, 0.0000000000000000000 ) ;
#266 = DIMENSIONAL_EXPONENTS ( 1.000000000000000000, 0.0000000000000000000, 0.0000000000000000000, 0.0000000000000000000, 0.0000000000000000000, 0.0000000000000000000, 0.0000000000000000000 ) ;
#267 = DIMENSIONAL_EXPONENTS ( 1.000000000000000000, 0.0000000000000000000, 0.0000000000000000000, 0.0000000000000000000, 0.0000000000000000000, 0.0000000000000000000, 0.0000000000000000000 ) ;
#268 = DIMENSIONAL_EXPONENTS ( 1.000000000000000000, 0.0000000000000000000, 0.0000000000000000000, 0.0000000000000000000, 0.0000000000000000000, 0.0000000000000000000, 0.0000000000000000000 ) ;
#269 = DIMENSIONAL_EXPONENTS ( 1.000000000000000000, 0.0000000000000000000, 0.0000000000000000000, 0.0000000000000000000, 0.0000000000000000000, 0.0000000000000000000, 0.0000000000000000000 ) ;
#270 = MANIFOLD_SOLID_BREP ( 'Cut-Extrude1', #161 ) ;
#271 = ADVANCED_BREP_SHAPE_REPRESENTATION ( 'D1002444_aLIGO_SUS_HSTS_UPPER BLADE BAKING FIXTURE STANDOFF, HSTS', ( #270, #310 ), #250 ) ;
#272 = UNCERTAINTY_MEASURE_WITH_UNIT (LENGTH_MEASURE( 1.000000000000000100E-005 ), #92, 'distance_accuracy_value', 'NONE');
#273 = UNCERTAINTY_MEASURE_WITH_UNIT (LENGTH_MEASURE( 1.000000000000000100E-005 ), #6, 'distance_accuracy_value', 'NONE');
#274 = UNCERTAINTY_MEASURE_WITH_UNIT (LENGTH_MEASURE( 1.000000000000000100E-005 ), #36, 'distance_accuracy_value', 'NONE');
#275 = UNCERTAINTY_MEASURE_WITH_UNIT (LENGTH_MEASURE( 1.000000000000000100E-005 ), #19, 'distance_accuracy_value', 'NONE');
#276 = UNCERTAINTY_MEASURE_WITH_UNIT (LENGTH_MEASURE( 1.000000000000000100E-005 ), #111, 'distance_accuracy_value', 'NONE');
#277 = PRODUCT_DEFINITION_CONTEXT ( 'detailed design', #120, 'design' ) ;
#278 = PRODUCT_DEFINITION_SHAPE ( 'NONE', 'NONE',  #311 ) ;
#279 = PRODUCT ( 'D1002444_aLIGO_SUS_HSTS_UPPER BLADE BAKING FIXTURE STANDOFF, HSTS', 'D1002444_aLIGO_SUS_HSTS_UPPER BLADE BAKING FIXTURE STANDOFF, HSTS', '', ( #105 ) ) ;
#280 = PRESENTATION_LAYER_ASSIGNMENT (  '', '', ( #208 ) ) ;
#281 = PRODUCT_DEFINITION_FORMATION_WITH_SPECIFIED_SOURCE ( 'ANY', '', #279, .NOT_KNOWN. ) ;
#282 = PRESENTATION_LAYER_ASSIGNMENT (  '', '', ( #201 ) ) ;
#283 = AXIS2_PLACEMENT_3D ( 'NONE', #131, #127, #126 ) ;
#284 = EDGE_CURVE ( 'NONE', #84, #77, #215, .T. ) ;
#285 = PRESENTATION_LAYER_ASSIGNMENT (  '', '', ( #192 ) ) ;
#286 = AXIS2_PLACEMENT_3D ( 'NONE', #62, #59, #58 ) ;
#287 = MECHANICAL_DESIGN_GEOMETRIC_PRESENTATION_REPRESENTATION (  '', ( #208 ), #210 ) ;
#288 = AXIS2_PLACEMENT_3D ( 'NONE', #63, #55, #52 ) ;
#289 = AXIS2_PLACEMENT_3D ( 'NONE', #136, #134, #133 ) ;
#290 = EDGE_CURVE ( 'NONE', #84, #91, #218, .T. ) ;
#291 = EDGE_CURVE ( 'NONE', #76, #79, #224, .T. ) ;
#292 = EDGE_CURVE ( 'NONE', #91, #73, #225, .T. ) ;
#293 = EDGE_CURVE ( 'NONE', #80, #78, #227, .T. ) ;
#294 = EDGE_CURVE ( 'NONE', #73, #101, #221, .T. ) ;
#295 = EDGE_CURVE ( 'NONE', #79, #76, #232, .T. ) ;
#296 = EDGE_CURVE ( 'NONE', #78, #76, #229, .T. ) ;
#297 = EDGE_CURVE ( 'NONE', #107, #84, #231, .T. ) ;
#298 = EDGE_CURVE ( 'NONE', #80, #79, #233, .T. ) ;
#299 = AXIS2_PLACEMENT_3D ( 'NONE', #60, #49, #48 ) ;
#300 = EDGE_CURVE ( 'NONE', #107, #96, #237, .T. ) ;
#301 = EDGE_CURVE ( 'NONE', #77, #86, #230, .T. ) ;
#302 = EDGE_CURVE ( 'NONE', #86, #101, #241, .T. ) ;
#303 = EDGE_CURVE ( 'NONE', #96, #91, #228, .T. ) ;
#304 = AXIS2_PLACEMENT_3D ( 'NONE', #51, #44, #43 ) ;
#305 = EDGE_CURVE ( 'NONE', #86, #107, #243, .T. ) ;
#306 = EDGE_CURVE ( 'NONE', #78, #80, #245, .T. ) ;
#307 = EDGE_CURVE ( 'NONE', #101, #96, #238, .T. ) ;
#308 = EDGE_CURVE ( 'NONE', #77, #73, #247, .T. ) ;
#309 = PRODUCT_RELATED_PRODUCT_CATEGORY ( 'part', '', ( #279 ) ) ;
#310 = AXIS2_PLACEMENT_3D ( 'NONE', #122, #115, #116 ) ;
#311 = PRODUCT_DEFINITION ( 'UNKNOWN', '', #281, #277 ) ;
#312 = MECHANICAL_DESIGN_GEOMETRIC_PRESENTATION_REPRESENTATION (  '', ( #253 ), #255 ) ;
#313 = PRESENTATION_LAYER_ASSIGNMENT (  '', '', ( #253 ) ) ;
#314 = AXIS2_PLACEMENT_3D ( 'NONE', #119, #135, #137 ) ;
#315 = AXIS2_PLACEMENT_3D ( 'NONE', #15, #13, #12 ) ;
#316 = MECHANICAL_DESIGN_GEOMETRIC_PRESENTATION_REPRESENTATION (  '', ( #192 ), #217 ) ;
#317 = AXIS2_PLACEMENT_3D ( 'NONE', #16, #31, #42 ) ;
#318 = AXIS2_PLACEMENT_3D ( 'NONE', #30, #28, #27 ) ;
#319 = AXIS2_PLACEMENT_3D ( 'NONE', #47, #53, #54 ) ;
#320 = AXIS2_PLACEMENT_3D ( 'NONE', #32, #50, #46 ) ;
#321 = MECHANICAL_DESIGN_GEOMETRIC_PRESENTATION_REPRESENTATION (  '', ( #201 ), #194 ) ;
ENDSEC;
END-ISO-10303-21;
