ISO-10303-21;
HEADER;
FILE_DESCRIPTION (( 'STEP AP214' ),
    '1' );
FILE_NAME ('D1100043-v1_aLIGO_Magnet Gluing Weight.STEP',
    '2011-03-01T16:09:08',
    ( '' ),
    ( '' ),
    'SwSTEP 2.0',
    'SolidWorks 2010',
    '' );
FILE_SCHEMA (( 'AUTOMOTIVE_DESIGN' ));
ENDSEC;

DATA;
#1 = LENGTH_MEASURE_WITH_UNIT ( LENGTH_MEASURE( 0.02539999999999999900 ), #70 );
#2 =( GEOMETRIC_REPRESENTATION_CONTEXT ( 3 ) GLOBAL_UNCERTAINTY_ASSIGNED_CONTEXT ( ( #145 ) ) GLOBAL_UNIT_ASSIGNED_CONTEXT ( ( #73, #79, #75 ) ) REPRESENTATION_CONTEXT ( 'NONE', 'WORKASPACE' ) );
#3 = SHAPE_DEFINITION_REPRESENTATION ( #144, #146 ) ;
#4 = FACE_OUTER_BOUND ( 'NONE', #42, .T. ) ;
#5 = CIRCLE ( 'NONE', #47, 0.1225000000000000000 ) ;
#6 = PRESENTATION_STYLE_ASSIGNMENT (( #76 ) ) ;
#7 = FACE_OUTER_BOUND ( 'NONE', #21, .T. ) ;
#8 = CYLINDRICAL_SURFACE ( 'NONE', #54, 0.1225000000000000000 ) ;
#9 = STYLED_ITEM ( 'NONE', ( #6 ), #147 ) ;
#10 = COLOUR_RGB ( '',0.0000000000000000000, 0.0000000000000000000, 1.000000000000000000 ) ;
#11 = ORIENTED_EDGE ( 'NONE', *, *, #57, .T. ) ;
#12 = LENGTH_MEASURE_WITH_UNIT ( LENGTH_MEASURE( 0.02539999999999999900 ), #78 );
#13 = ORIENTED_EDGE ( 'NONE', *, *, #57, .F. ) ;
#14 = ORIENTED_EDGE ( 'NONE', *, *, #56, .T. ) ;
#15 = COLOUR_RGB ( '',0.0000000000000000000, 0.0000000000000000000, 1.000000000000000000 ) ;
#16 = CLOSED_SHELL ( 'NONE', ( #142, #140, #139, #137 ) ) ;
#17 = EDGE_LOOP ( 'NONE', ( #20, #30, #11, #23 ) ) ;
#18 = LINE ( 'NONE', #126, #19 ) ;
#19 = VECTOR ( 'NONE', #101, 39.37007874015748100 ) ;
#20 = ORIENTED_EDGE ( 'NONE', *, *, #68, .F. ) ;
#21 = EDGE_LOOP ( 'NONE', ( #40, #43 ) ) ;
#22 = STYLED_ITEM ( 'NONE', ( #26 ), #146 ) ;
#23 = ORIENTED_EDGE ( 'NONE', *, *, #51, .T. ) ;
#24 = ORIENTED_EDGE ( 'NONE', *, *, #59, .T. ) ;
#25 = SURFACE_STYLE_FILL_AREA ( #72 ) ;
#26 = PRESENTATION_STYLE_ASSIGNMENT (( #119 ) ) ;
#27 = ORIENTED_EDGE ( 'NONE', *, *, #67, .T. ) ;
#28 = CIRCLE ( 'NONE', #62, 0.1225000000000000000 ) ;
#29 = ORIENTED_EDGE ( 'NONE', *, *, #56, .F. ) ;
#30 = ORIENTED_EDGE ( 'NONE', *, *, #59, .F. ) ;
#31 = LENGTH_MEASURE_WITH_UNIT ( LENGTH_MEASURE( 0.02539999999999999900 ), #106 );
#32 =( GEOMETRIC_REPRESENTATION_CONTEXT ( 3 ) GLOBAL_UNCERTAINTY_ASSIGNED_CONTEXT ( ( #148 ) ) GLOBAL_UNIT_ASSIGNED_CONTEXT ( ( #111, #112, #89 ) ) REPRESENTATION_CONTEXT ( 'NONE', 'WORKASPACE' ) );
#33 =( GEOMETRIC_REPRESENTATION_CONTEXT ( 3 ) GLOBAL_UNCERTAINTY_ASSIGNED_CONTEXT ( ( #149 ) ) GLOBAL_UNIT_ASSIGNED_CONTEXT ( ( #128, #125, #93 ) ) REPRESENTATION_CONTEXT ( 'NONE', 'WORKASPACE' ) );
#34 = FACE_OUTER_BOUND ( 'NONE', #46, .T. ) ;
#35 = FACE_OUTER_BOUND ( 'NONE', #17, .T. ) ;
#36 = CYLINDRICAL_SURFACE ( 'NONE', #63, 0.1225000000000000000 ) ;
#37 = CIRCLE ( 'NONE', #55, 0.1225000000000000000 ) ;
#38 = LINE ( 'NONE', #91, #39 ) ;
#39 = VECTOR ( 'NONE', #121, 39.37007874015748100 ) ;
#40 = ORIENTED_EDGE ( 'NONE', *, *, #51, .F. ) ;
#41 = ORIENTED_EDGE ( 'NONE', *, *, #68, .T. ) ;
#42 = EDGE_LOOP ( 'NONE', ( #29, #41, #27, #13 ) ) ;
#43 = ORIENTED_EDGE ( 'NONE', *, *, #67, .F. ) ;
#44 = CIRCLE ( 'NONE', #61, 0.1225000000000000000 ) ;
#45 = SURFACE_STYLE_FILL_AREA ( #107 ) ;
#46 = EDGE_LOOP ( 'NONE', ( #24, #14 ) ) ;
#47 = AXIS2_PLACEMENT_3D ( 'NONE', #96, #77, #118 ) ;
#48 = PRESENTATION_LAYER_ASSIGNMENT (  '', '', ( #22 ) ) ;
#49 = AXIS2_PLACEMENT_3D ( 'NONE', #133, #90, #82 ) ;
#50 = PRODUCT_RELATED_PRODUCT_CATEGORY ( 'part', '', ( #135 ) ) ;
#51 = EDGE_CURVE ( 'NONE', #98, #104, #28, .T. ) ;
#52 = PRODUCT_DEFINITION ( 'UNKNOWN', '', #60, #143 ) ;
#53 = AXIS2_PLACEMENT_3D ( 'NONE', #87, #117, #129 ) ;
#54 = AXIS2_PLACEMENT_3D ( 'NONE', #97, #116, #123 ) ;
#55 = AXIS2_PLACEMENT_3D ( 'NONE', #86, #80, #88 ) ;
#56 = EDGE_CURVE ( 'NONE', #109, #127, #37, .T. ) ;
#57 = EDGE_CURVE ( 'NONE', #127, #98, #38, .T. ) ;
#58 = MECHANICAL_DESIGN_GEOMETRIC_PRESENTATION_REPRESENTATION (  '', ( #9 ), #32 ) ;
#59 = EDGE_CURVE ( 'NONE', #127, #109, #5, .T. ) ;
#60 = PRODUCT_DEFINITION_FORMATION_WITH_SPECIFIED_SOURCE ( 'ANY', '', #135, .NOT_KNOWN. ) ;
#61 = AXIS2_PLACEMENT_3D ( 'NONE', #105, #113, #124 ) ;
#62 = AXIS2_PLACEMENT_3D ( 'NONE', #100, #74, #85 ) ;
#63 = AXIS2_PLACEMENT_3D ( 'NONE', #114, #69, #71 ) ;
#64 = PRESENTATION_LAYER_ASSIGNMENT (  '', '', ( #9 ) ) ;
#65 = AXIS2_PLACEMENT_3D ( 'NONE', #81, #122, #115 ) ;
#66 = MECHANICAL_DESIGN_GEOMETRIC_PRESENTATION_REPRESENTATION (  '', ( #22 ), #2 ) ;
#67 = EDGE_CURVE ( 'NONE', #104, #98, #44, .T. ) ;
#68 = EDGE_CURVE ( 'NONE', #109, #104, #18, .T. ) ;
#69 = DIRECTION ( 'NONE',  ( -0.0000000000000000000, -1.000000000000000000, -0.0000000000000000000 ) ) ;
#70 =( LENGTH_UNIT ( ) NAMED_UNIT ( * ) SI_UNIT ( $, .METRE. ) );
#71 = DIRECTION ( 'NONE',  ( 0.0000000000000000000, 0.0000000000000000000, -1.000000000000000000 ) ) ;
#72 = FILL_AREA_STYLE ('',( #94 ) ) ;
#73 =( CONVERSION_BASED_UNIT ( 'INCH', #1 ) LENGTH_UNIT ( ) NAMED_UNIT ( #138 ) );
#74 = DIRECTION ( 'NONE',  ( 0.0000000000000000000, 1.000000000000000000, 0.0000000000000000000 ) ) ;
#75 =( NAMED_UNIT ( * ) SI_UNIT ( $, .STERADIAN. ) SOLID_ANGLE_UNIT ( ) );
#76 = SURFACE_STYLE_USAGE ( .BOTH. , #108 ) ;
#77 = DIRECTION ( 'NONE',  ( 0.0000000000000000000, 1.000000000000000000, 0.0000000000000000000 ) ) ;
#78 =( LENGTH_UNIT ( ) NAMED_UNIT ( * ) SI_UNIT ( $, .METRE. ) );
#79 =( NAMED_UNIT ( * ) PLANE_ANGLE_UNIT ( ) SI_UNIT ( $, .RADIAN. ) );
#80 = DIRECTION ( 'NONE',  ( 0.0000000000000000000, 1.000000000000000000, 0.0000000000000000000 ) ) ;
#81 = CARTESIAN_POINT ( 'NONE',  ( 0.0000000000000000000, 0.0000000000000000000, 0.0000000000000000000 ) ) ;
#82 = DIRECTION ( 'NONE',  ( 0.0000000000000000000, -0.0000000000000000000, 1.000000000000000000 ) ) ;
#83 = APPLICATION_CONTEXT ( 'automotive_design' ) ;
#84 = SURFACE_SIDE_STYLE ('',( #25 ) ) ;
#85 = DIRECTION ( 'NONE',  ( 0.0000000000000000000, 0.0000000000000000000, 1.000000000000000000 ) ) ;
#86 = CARTESIAN_POINT ( 'NONE',  ( 0.0000000000000000000, 0.5999999999999999800, 0.0000000000000000000 ) ) ;
#87 = CARTESIAN_POINT ( 'NONE',  ( 0.0000000000000000000, 0.5999999999999999800, 0.0000000000000000000 ) ) ;
#88 = DIRECTION ( 'NONE',  ( 0.0000000000000000000, 0.0000000000000000000, 1.000000000000000000 ) ) ;
#89 =( NAMED_UNIT ( * ) SI_UNIT ( $, .STERADIAN. ) SOLID_ANGLE_UNIT ( ) );
#90 = DIRECTION ( 'NONE',  ( 0.0000000000000000000, 1.000000000000000000, 0.0000000000000000000 ) ) ;
#91 = CARTESIAN_POINT ( 'NONE',  ( 0.0000000000000000000, 0.5999999999999999800, -0.1225000000000000000 ) ) ;
#92 = APPLICATION_CONTEXT ( 'automotive_design' ) ;
#93 =( NAMED_UNIT ( * ) SI_UNIT ( $, .STERADIAN. ) SOLID_ANGLE_UNIT ( ) );
#94 = FILL_AREA_STYLE_COLOUR ( '', #15 ) ;
#95 = CARTESIAN_POINT ( 'NONE',  ( 0.0000000000000000000, 0.5999999999999999800, -0.1225000000000000000 ) ) ;
#96 = CARTESIAN_POINT ( 'NONE',  ( 0.0000000000000000000, 0.5999999999999999800, 0.0000000000000000000 ) ) ;
#97 = CARTESIAN_POINT ( 'NONE',  ( 0.0000000000000000000, 0.5999999999999999800, 0.0000000000000000000 ) ) ;
#98 = VERTEX_POINT ( 'NONE', #132 ) ;
#99 = CARTESIAN_POINT ( 'NONE',  ( 1.500192328955507400E-017, 0.0000000000000000000, 0.1225000000000000000 ) ) ;
#100 = CARTESIAN_POINT ( 'NONE',  ( 0.0000000000000000000, 0.0000000000000000000, 0.0000000000000000000 ) ) ;
#101 = DIRECTION ( 'NONE',  ( -0.0000000000000000000, -1.000000000000000000, -0.0000000000000000000 ) ) ;
#102 = APPLICATION_PROTOCOL_DEFINITION ( 'draft international standard', 'automotive_design', 1998, #92 ) ;
#103 = CARTESIAN_POINT ( 'NONE',  ( 1.500192328955507400E-017, 0.5999999999999999800, 0.1225000000000000000 ) ) ;
#104 = VERTEX_POINT ( 'NONE', #99 ) ;
#105 = CARTESIAN_POINT ( 'NONE',  ( 0.0000000000000000000, 0.0000000000000000000, 0.0000000000000000000 ) ) ;
#106 =( LENGTH_UNIT ( ) NAMED_UNIT ( * ) SI_UNIT ( $, .METRE. ) );
#107 = FILL_AREA_STYLE ('',( #110 ) ) ;
#108 = SURFACE_SIDE_STYLE ('',( #45 ) ) ;
#109 = VERTEX_POINT ( 'NONE', #103 ) ;
#110 = FILL_AREA_STYLE_COLOUR ( '', #10 ) ;
#111 =( CONVERSION_BASED_UNIT ( 'INCH', #12 ) LENGTH_UNIT ( ) NAMED_UNIT ( #136 ) );
#112 =( NAMED_UNIT ( * ) PLANE_ANGLE_UNIT ( ) SI_UNIT ( $, .RADIAN. ) );
#113 = DIRECTION ( 'NONE',  ( 0.0000000000000000000, 1.000000000000000000, 0.0000000000000000000 ) ) ;
#114 = CARTESIAN_POINT ( 'NONE',  ( 0.0000000000000000000, 0.5999999999999999800, 0.0000000000000000000 ) ) ;
#115 = DIRECTION ( 'NONE',  ( 1.000000000000000000, 0.0000000000000000000, 0.0000000000000000000 ) ) ;
#116 = DIRECTION ( 'NONE',  ( -0.0000000000000000000, -1.000000000000000000, -0.0000000000000000000 ) ) ;
#117 = DIRECTION ( 'NONE',  ( 0.0000000000000000000, 1.000000000000000000, 0.0000000000000000000 ) ) ;
#118 = DIRECTION ( 'NONE',  ( 0.0000000000000000000, 0.0000000000000000000, 1.000000000000000000 ) ) ;
#119 = SURFACE_STYLE_USAGE ( .BOTH. , #84 ) ;
#120 = PRODUCT_CONTEXT ( 'NONE', #83, 'mechanical' ) ;
#121 = DIRECTION ( 'NONE',  ( -0.0000000000000000000, -1.000000000000000000, -0.0000000000000000000 ) ) ;
#122 = DIRECTION ( 'NONE',  ( 0.0000000000000000000, 0.0000000000000000000, 1.000000000000000000 ) ) ;
#123 = DIRECTION ( 'NONE',  ( 0.0000000000000000000, 0.0000000000000000000, -1.000000000000000000 ) ) ;
#124 = DIRECTION ( 'NONE',  ( 0.0000000000000000000, 0.0000000000000000000, 1.000000000000000000 ) ) ;
#125 =( NAMED_UNIT ( * ) PLANE_ANGLE_UNIT ( ) SI_UNIT ( $, .RADIAN. ) );
#126 = CARTESIAN_POINT ( 'NONE',  ( 1.500192328955507400E-017, 0.5999999999999999800, 0.1225000000000000000 ) ) ;
#127 = VERTEX_POINT ( 'NONE', #95 ) ;
#128 =( CONVERSION_BASED_UNIT ( 'INCH', #31 ) LENGTH_UNIT ( ) NAMED_UNIT ( #141 ) );
#129 = DIRECTION ( 'NONE',  ( 0.0000000000000000000, -0.0000000000000000000, 1.000000000000000000 ) ) ;
#130 = APPLICATION_PROTOCOL_DEFINITION ( 'draft international standard', 'automotive_design', 1998, #83 ) ;
#131 = PLANE ( 'NONE',  #53 ) ;
#132 = CARTESIAN_POINT ( 'NONE',  ( 0.0000000000000000000, 0.0000000000000000000, -0.1225000000000000000 ) ) ;
#133 = CARTESIAN_POINT ( 'NONE',  ( 0.0000000000000000000, 0.0000000000000000000, 0.0000000000000000000 ) ) ;
#134 = PLANE ( 'NONE',  #49 ) ;
#135 = PRODUCT ( 'D1100043-v1_aLIGO_Magnet Gluing Weight', 'D1100043-v1_aLIGO_Magnet Gluing Weight', '', ( #120 ) ) ;
#136 = DIMENSIONAL_EXPONENTS ( 1.000000000000000000, 0.0000000000000000000, 0.0000000000000000000, 0.0000000000000000000, 0.0000000000000000000, 0.0000000000000000000, 0.0000000000000000000 ) ;
#137 = ADVANCED_FACE ( 'NONE', ( #7 ), #134, .F. ) ;
#138 = DIMENSIONAL_EXPONENTS ( 1.000000000000000000, 0.0000000000000000000, 0.0000000000000000000, 0.0000000000000000000, 0.0000000000000000000, 0.0000000000000000000, 0.0000000000000000000 ) ;
#139 = ADVANCED_FACE ( 'NONE', ( #34 ), #131, .T. ) ;
#140 = ADVANCED_FACE ( 'NONE', ( #35 ), #8, .T. ) ;
#141 = DIMENSIONAL_EXPONENTS ( 1.000000000000000000, 0.0000000000000000000, 0.0000000000000000000, 0.0000000000000000000, 0.0000000000000000000, 0.0000000000000000000, 0.0000000000000000000 ) ;
#142 = ADVANCED_FACE ( 'NONE', ( #4 ), #36, .T. ) ;
#143 = PRODUCT_DEFINITION_CONTEXT ( 'detailed design', #92, 'design' ) ;
#144 = PRODUCT_DEFINITION_SHAPE ( 'NONE', 'NONE',  #52 ) ;
#145 = UNCERTAINTY_MEASURE_WITH_UNIT (LENGTH_MEASURE( 1.000000000000000100E-005 ), #73, 'distance_accuracy_value', 'NONE');
#146 = ADVANCED_BREP_SHAPE_REPRESENTATION ( 'D1100043-v1_aLIGO_Magnet Gluing Weight', ( #147, #65 ), #33 ) ;
#147 = MANIFOLD_SOLID_BREP ( 'Boss-Extrude1', #16 ) ;
#148 = UNCERTAINTY_MEASURE_WITH_UNIT (LENGTH_MEASURE( 1.000000000000000100E-005 ), #111, 'distance_accuracy_value', 'NONE');
#149 = UNCERTAINTY_MEASURE_WITH_UNIT (LENGTH_MEASURE( 1.000000000000000100E-005 ), #128, 'distance_accuracy_value', 'NONE');
ENDSEC;
END-ISO-10303-21;
