ISO-10303-21;
HEADER;
FILE_DESCRIPTION (( 'STEP AP203' ),
    '1' );
FILE_NAME ('D1200234-v1.STEP',
    '2012-02-07T19:20:31',
    ( 'Dwayne Giardina' ),
    ( 'Microsoft' ),
    'SwSTEP 2.0',
    'SolidWorks 2012',
    '' );
FILE_SCHEMA (( 'CONFIG_CONTROL_DESIGN' ));
ENDSEC;

DATA;
#1 = MANIFOLD_SOLID_BREP ( 'Cut-Extrude1', #224 ) ;
#2 = AXIS2_PLACEMENT_3D ( 'NONE', #82, #81, #115 ) ;
#3 = AXIS2_PLACEMENT_3D ( 'NONE', #73, #152, #110 ) ;
#4 = AXIS2_PLACEMENT_3D ( 'NONE', #167, #69, #150 ) ;
#5 = CC_DESIGN_PERSON_AND_ORGANIZATION_ASSIGNMENT ( #251, #133, ( #13 ) ) ;
#6 = CC_DESIGN_DATE_AND_TIME_ASSIGNMENT ( #214, #134, ( #13 ) ) ;
#7 = PRODUCT_RELATED_PRODUCT_CATEGORY ( 'detail', '', ( #331 ) ) ;
#8 = AXIS2_PLACEMENT_3D ( 'NONE', #144, #148, #137 ) ;
#9 = AXIS2_PLACEMENT_3D ( 'NONE', #143, #108, #149 ) ;
#10 = AXIS2_PLACEMENT_3D ( 'NONE', #103, #84, #102 ) ;
#11 = CC_DESIGN_PERSON_AND_ORGANIZATION_ASSIGNMENT ( #215, #136, ( #21 ) ) ;
#12 = AXIS2_PLACEMENT_3D ( 'NONE', #123, #97, #62 ) ;
#13 = SECURITY_CLASSIFICATION ( '', '', #116 ) ;
#14 = AXIS2_PLACEMENT_3D ( 'NONE', #124, #58, #56 ) ;
#15 = CC_DESIGN_PERSON_AND_ORGANIZATION_ASSIGNMENT ( #223, #114, ( #21 ) ) ;
#16 = AXIS2_PLACEMENT_3D ( 'NONE', #76, #163, #94 ) ;
#17 = AXIS2_PLACEMENT_3D ( 'NONE', #60, #157, #158 ) ;
#18 = AXIS2_PLACEMENT_3D ( 'NONE', #117, #54, #65 ) ;
#19 = AXIS2_PLACEMENT_3D ( 'NONE', #155, #153, #154 ) ;
#20 = AXIS2_PLACEMENT_3D ( 'NONE', #93, #68, #67 ) ;
#21 = PRODUCT_DEFINITION_FORMATION_WITH_SPECIFIED_SOURCE ( 'ANY', '', #331, .NOT_KNOWN. ) ;
#22 = CC_DESIGN_APPROVAL ( #25, ( #21 ) ) ;
#23 = AXIS2_PLACEMENT_3D ( 'NONE', #91, #125, #126 ) ;
#24 = AXIS2_PLACEMENT_3D ( 'NONE', #104, #70, #80 ) ;
#25 = APPROVAL ( #121, 'UNSPECIFIED' ) ;
#26 = AXIS2_PLACEMENT_3D ( 'NONE', #122, #86, #85 ) ;
#27 = CC_DESIGN_APPROVAL ( #43, ( #13 ) ) ;
#28 =( GEOMETRIC_REPRESENTATION_CONTEXT ( 3 ) GLOBAL_UNCERTAINTY_ASSIGNED_CONTEXT ( ( #329 ) ) GLOBAL_UNIT_ASSIGNED_CONTEXT ( ( #89, #88, #87 ) ) REPRESENTATION_CONTEXT ( 'NONE', 'WORKASPACE' ) );
#29 = CC_DESIGN_DATE_AND_TIME_ASSIGNMENT ( #195, #120, ( #32 ) ) ;
#30 = CC_DESIGN_APPROVAL ( #31, ( #32 ) ) ;
#31 = APPROVAL ( #140, 'UNSPECIFIED' ) ;
#32 = PRODUCT_DEFINITION ( 'UNKNOWN', '', #21, #311 ) ;
#33 = CC_DESIGN_PERSON_AND_ORGANIZATION_ASSIGNMENT ( #221, #106, ( #331 ) ) ;
#34 = AXIS2_PLACEMENT_3D ( 'NONE', #64, #141, #142 ) ;
#35 = CC_DESIGN_PERSON_AND_ORGANIZATION_ASSIGNMENT ( #228, #119, ( #32 ) ) ;
#36 = AXIS2_PLACEMENT_3D ( 'NONE', #113, #147, #145 ) ;
#37 = CC_DESIGN_SECURITY_CLASSIFICATION ( #13, ( #21 ) ) ;
#38 = AXIS2_PLACEMENT_3D ( 'NONE', #112, #131, #156 ) ;
#39 = AXIS2_PLACEMENT_3D ( 'NONE', #55, #159, #77 ) ;
#40 = AXIS2_PLACEMENT_3D ( 'NONE', #96, #95, #75 ) ;
#41 = EDGE_CURVE ( 'NONE', #232, #276, #268, .T. ) ;
#42 = AXIS2_PLACEMENT_3D ( 'NONE', #59, #72, #151 ) ;
#43 = APPROVAL ( #135, 'UNSPECIFIED' ) ;
#44 = DIMENSIONAL_EXPONENTS ( 1.000000000000000000, 0.0000000000000000000, 0.0000000000000000000, 0.0000000000000000000, 0.0000000000000000000, 0.0000000000000000000, 0.0000000000000000000 ) ;
#45 = ADVANCED_FACE ( 'NONE', ( #210 ), #257, .T. ) ;
#46 = ADVANCED_FACE ( 'NONE', ( #172 ), #305, .T. ) ;
#47 = ADVANCED_FACE ( 'NONE', ( #217, #292 ), #111, .F. ) ;
#48 = ADVANCED_FACE ( 'NONE', ( #231 ), #205, .T. ) ;
#49 = ADVANCED_FACE ( 'NONE', ( #201 ), #199, .T. ) ;
#50 = ADVANCED_FACE ( 'NONE', ( #245, #197 ), #107, .T. ) ;
#51 = ADVANCED_FACE ( 'NONE', ( #236, #280 ), #166, .T. ) ;
#52 = ADVANCED_FACE ( 'NONE', ( #282 ), #275, .F. ) ;
#53 = ADVANCED_FACE ( 'NONE', ( #278 ), #272, .F. ) ;
#54 = DIRECTION ( 'NONE',  ( 0.0000000000000000000, -1.000000000000000000, 0.0000000000000000000 ) ) ;
#55 = CARTESIAN_POINT ( 'NONE',  ( 0.0000000000000000000, 0.2500000000000000000, 0.0000000000000000000 ) ) ;
#56 = DIRECTION ( 'NONE',  ( 0.0000000000000000000, 0.0000000000000000000, -1.000000000000000000 ) ) ;
#57 = DIRECTION ( 'NONE',  ( -0.0000000000000000000, -1.000000000000000000, -0.0000000000000000000 ) ) ;
#58 = DIRECTION ( 'NONE',  ( 0.0000000000000000000, -1.000000000000000000, 0.0000000000000000000 ) ) ;
#59 = CARTESIAN_POINT ( 'NONE',  ( 0.0000000000000000000, 1.000000000000000000, 0.0000000000000000000 ) ) ;
#60 = CARTESIAN_POINT ( 'NONE',  ( 0.0000000000000000000, 1.000000000000000000, 0.0000000000000000000 ) ) ;
#61 = CARTESIAN_POINT ( 'NONE',  ( 0.0000000000000000000, 0.2500000000000000000, -0.2500000000000000000 ) ) ;
#62 = DIRECTION ( 'NONE',  ( 0.0000000000000000000, 0.0000000000000000000, -1.000000000000000000 ) ) ;
#63 = APPLICATION_PROTOCOL_DEFINITION ( 'international standard', 'config_control_design', 1994, #105 ) ;
#64 = CARTESIAN_POINT ( 'NONE',  ( 0.0000000000000000000, 0.0000000000000000000, 0.0000000000000000000 ) ) ;
#65 = DIRECTION ( 'NONE',  ( 0.0000000000000000000, 0.0000000000000000000, -1.000000000000000000 ) ) ;
#66 = MECHANICAL_CONTEXT ( 'NONE', #105, 'mechanical' ) ;
#67 = DIRECTION ( 'NONE',  ( 0.0000000000000000000, 0.0000000000000000000, -1.000000000000000000 ) ) ;
#68 = DIRECTION ( 'NONE',  ( 0.0000000000000000000, -1.000000000000000000, 0.0000000000000000000 ) ) ;
#69 = DIRECTION ( 'NONE',  ( 0.0000000000000000000, 1.000000000000000000, 0.0000000000000000000 ) ) ;
#70 = DIRECTION ( 'NONE',  ( -0.0000000000000000000, -1.000000000000000000, -0.0000000000000000000 ) ) ;
#71 = CARTESIAN_POINT ( 'NONE',  ( 1.904325772674134600E-017, 0.0000000000000000000, 0.1555000000000000300 ) ) ;
#72 = DIRECTION ( 'NONE',  ( -0.0000000000000000000, -1.000000000000000000, -0.0000000000000000000 ) ) ;
#73 = CARTESIAN_POINT ( 'NONE',  ( 0.0000000000000000000, 0.2500000000000000000, 0.0000000000000000000 ) ) ;
#74 = DIRECTION ( 'NONE',  ( -0.0000000000000000000, -1.000000000000000000, -0.0000000000000000000 ) ) ;
#75 = DIRECTION ( 'NONE',  ( 0.0000000000000000000, 0.0000000000000000000, -1.000000000000000000 ) ) ;
#76 = CARTESIAN_POINT ( 'NONE',  ( 0.0000000000000000000, 0.2500000000000000000, 0.0000000000000000000 ) ) ;
#77 = DIRECTION ( 'NONE',  ( 0.0000000000000000000, -0.0000000000000000000, -1.000000000000000000 ) ) ;
#78 = DIRECTION ( 'NONE',  ( -0.0000000000000000000, -1.000000000000000000, -0.0000000000000000000 ) ) ;
#79 = DIRECTION ( 'NONE',  ( -0.0000000000000000000, -1.000000000000000000, -0.0000000000000000000 ) ) ;
#80 = DIRECTION ( 'NONE',  ( 0.0000000000000000000, 0.0000000000000000000, -1.000000000000000000 ) ) ;
#81 = DIRECTION ( 'NONE',  ( -0.0000000000000000000, -1.000000000000000000, -0.0000000000000000000 ) ) ;
#82 = CARTESIAN_POINT ( 'NONE',  ( 0.0000000000000000000, 1.000000000000000000, 0.0000000000000000000 ) ) ;
#83 = DIRECTION ( 'NONE',  ( -0.0000000000000000000, -1.000000000000000000, -0.0000000000000000000 ) ) ;
#84 = DIRECTION ( 'NONE',  ( 0.0000000000000000000, 1.000000000000000000, 0.0000000000000000000 ) ) ;
#85 = DIRECTION ( 'NONE',  ( 0.0000000000000000000, 0.0000000000000000000, 1.000000000000000000 ) ) ;
#86 = DIRECTION ( 'NONE',  ( 0.0000000000000000000, 1.000000000000000000, 0.0000000000000000000 ) ) ;
#87 =( NAMED_UNIT ( * ) SI_UNIT ( $, .STERADIAN. ) SOLID_ANGLE_UNIT ( ) );
#88 =( NAMED_UNIT ( * ) PLANE_ANGLE_UNIT ( ) SI_UNIT ( $, .RADIAN. ) );
#89 =( CONVERSION_BASED_UNIT ( 'INCH', #218 ) LENGTH_UNIT ( ) NAMED_UNIT ( #44 ) );
#90 =( LENGTH_UNIT ( ) NAMED_UNIT ( * ) SI_UNIT ( $, .METRE. ) );
#91 = CARTESIAN_POINT ( 'NONE',  ( 0.0000000000000000000, 1.000000000000000000, 0.0000000000000000000 ) ) ;
#92 = CARTESIAN_POINT ( 'NONE',  ( 3.061616997868383000E-017, 0.2500000000000000000, 0.2500000000000000000 ) ) ;
#93 = CARTESIAN_POINT ( 'NONE',  ( 0.0000000000000000000, 0.0000000000000000000, 0.0000000000000000000 ) ) ;
#94 = DIRECTION ( 'NONE',  ( 0.0000000000000000000, 0.0000000000000000000, -1.000000000000000000 ) ) ;
#95 = DIRECTION ( 'NONE',  ( 0.0000000000000000000, -1.000000000000000000, 0.0000000000000000000 ) ) ;
#96 = CARTESIAN_POINT ( 'NONE',  ( 0.0000000000000000000, 0.2500000000000000000, 0.0000000000000000000 ) ) ;
#97 = DIRECTION ( 'NONE',  ( 0.0000000000000000000, -1.000000000000000000, 0.0000000000000000000 ) ) ;
#98 = CARTESIAN_POINT ( 'NONE',  ( 3.673940397442059500E-017, 0.2500000000000000000, 0.2999999999999999900 ) ) ;
#99 = CARTESIAN_POINT ( 'NONE',  ( 1.904325772674134600E-017, 1.000000000000000000, 0.1555000000000000300 ) ) ;
#100 = CARTESIAN_POINT ( 'NONE',  ( 0.0000000000000000000, 0.2500000000000000000, -0.2999999999999999900 ) ) ;
#101 = APPROVAL_ROLE ( '' ) ;
#102 = DIRECTION ( 'NONE',  ( 0.0000000000000000000, 0.0000000000000000000, 1.000000000000000000 ) ) ;
#103 = CARTESIAN_POINT ( 'NONE',  ( 0.0000000000000000000, 1.000000000000000000, 0.0000000000000000000 ) ) ;
#104 = CARTESIAN_POINT ( 'NONE',  ( 0.0000000000000000000, 1.000000000000000000, 0.0000000000000000000 ) ) ;
#105 = APPLICATION_CONTEXT ( 'configuration controlled 3d designs of mechanical parts and assemblies' ) ;
#106 = PERSON_AND_ORGANIZATION_ROLE ( 'design_owner' ) ;
#107 = PLANE ( 'NONE',  #9 ) ;
#108 = DIRECTION ( 'NONE',  ( 0.0000000000000000000, 1.000000000000000000, 0.0000000000000000000 ) ) ;
#109 = CARTESIAN_POINT ( 'NONE',  ( 0.0000000000000000000, 0.2500000000000000000, -0.2500000000000000000 ) ) ;
#110 = DIRECTION ( 'NONE',  ( 0.0000000000000000000, 0.0000000000000000000, -1.000000000000000000 ) ) ;
#111 = PLANE ( 'NONE',  #36 ) ;
#112 = CARTESIAN_POINT ( 'NONE',  ( 0.0000000000000000000, 0.2500000000000000000, 0.0000000000000000000 ) ) ;
#113 = CARTESIAN_POINT ( 'NONE',  ( 0.0000000000000000000, 0.0000000000000000000, 0.0000000000000000000 ) ) ;
#114 = PERSON_AND_ORGANIZATION_ROLE ( 'design_supplier' ) ;
#115 = DIRECTION ( 'NONE',  ( 0.0000000000000000000, 0.0000000000000000000, -1.000000000000000000 ) ) ;
#116 = SECURITY_CLASSIFICATION_LEVEL ( 'unclassified' ) ;
#117 = CARTESIAN_POINT ( 'NONE',  ( 0.0000000000000000000, 0.0000000000000000000, 0.0000000000000000000 ) ) ;
#118 = CARTESIAN_POINT ( 'NONE',  ( 0.0000000000000000000, 0.0000000000000000000, -0.1555000000000000300 ) ) ;
#119 = PERSON_AND_ORGANIZATION_ROLE ( 'creator' ) ;
#120 = DATE_TIME_ROLE ( 'creation_date' ) ;
#121 = APPROVAL_STATUS ( 'not_yet_approved' ) ;
#122 = CARTESIAN_POINT ( 'NONE',  ( 0.0000000000000000000, 0.0000000000000000000, 0.0000000000000000000 ) ) ;
#123 = CARTESIAN_POINT ( 'NONE',  ( 0.0000000000000000000, 0.2500000000000000000, 0.0000000000000000000 ) ) ;
#124 = CARTESIAN_POINT ( 'NONE',  ( 0.0000000000000000000, 0.2500000000000000000, 0.0000000000000000000 ) ) ;
#125 = DIRECTION ( 'NONE',  ( 0.0000000000000000000, 1.000000000000000000, 0.0000000000000000000 ) ) ;
#126 = DIRECTION ( 'NONE',  ( 0.0000000000000000000, 0.0000000000000000000, 1.000000000000000000 ) ) ;
#127 = CARTESIAN_POINT ( 'NONE',  ( 3.673940397442058900E-017, 1.000000000000000000, 0.2999999999999999300 ) ) ;
#128 = CARTESIAN_POINT ( 'NONE',  ( 0.0000000000000000000, 1.000000000000000000, -0.1555000000000000300 ) ) ;
#129 = DIRECTION ( 'NONE',  ( -0.0000000000000000000, -1.000000000000000000, -0.0000000000000000000 ) ) ;
#130 = CARTESIAN_POINT ( 'NONE',  ( 0.0000000000000000000, 1.000000000000000000, -0.1555000000000000300 ) ) ;
#131 = DIRECTION ( 'NONE',  ( -0.0000000000000000000, -1.000000000000000000, -0.0000000000000000000 ) ) ;
#132 = CARTESIAN_POINT ( 'NONE',  ( 1.904325772674134600E-017, 1.000000000000000000, 0.1555000000000000300 ) ) ;
#133 = PERSON_AND_ORGANIZATION_ROLE ( 'classification_officer' ) ;
#134 = DATE_TIME_ROLE ( 'classification_date' ) ;
#135 = APPROVAL_STATUS ( 'not_yet_approved' ) ;
#136 = PERSON_AND_ORGANIZATION_ROLE ( 'creator' ) ;
#137 = DIRECTION ( 'NONE',  ( 0.0000000000000000000, 0.0000000000000000000, -1.000000000000000000 ) ) ;
#138 = APPLICATION_CONTEXT ( 'configuration controlled 3d designs of mechanical parts and assemblies' ) ;
#139 = APPLICATION_PROTOCOL_DEFINITION ( 'international standard', 'config_control_design', 1994, #138 ) ;
#140 = APPROVAL_STATUS ( 'not_yet_approved' ) ;
#141 = DIRECTION ( 'NONE',  ( 0.0000000000000000000, 0.0000000000000000000, 1.000000000000000000 ) ) ;
#142 = DIRECTION ( 'NONE',  ( 1.000000000000000000, 0.0000000000000000000, 0.0000000000000000000 ) ) ;
#143 = CARTESIAN_POINT ( 'NONE',  ( 0.0000000000000000000, 1.000000000000000000, 0.0000000000000000000 ) ) ;
#144 = CARTESIAN_POINT ( 'NONE',  ( 0.0000000000000000000, 1.000000000000000000, 0.0000000000000000000 ) ) ;
#145 = DIRECTION ( 'NONE',  ( 0.0000000000000000000, -0.0000000000000000000, 1.000000000000000000 ) ) ;
#146 = CARTESIAN_POINT ( 'NONE',  ( 0.0000000000000000000, 0.0000000000000000000, -0.2500000000000000000 ) ) ;
#147 = DIRECTION ( 'NONE',  ( 0.0000000000000000000, 1.000000000000000000, 0.0000000000000000000 ) ) ;
#148 = DIRECTION ( 'NONE',  ( -0.0000000000000000000, -1.000000000000000000, -0.0000000000000000000 ) ) ;
#149 = DIRECTION ( 'NONE',  ( 0.0000000000000000000, -0.0000000000000000000, 1.000000000000000000 ) ) ;
#150 = DIRECTION ( 'NONE',  ( 0.0000000000000000000, 0.0000000000000000000, 1.000000000000000000 ) ) ;
#151 = DIRECTION ( 'NONE',  ( 0.0000000000000000000, 0.0000000000000000000, -1.000000000000000000 ) ) ;
#152 = DIRECTION ( 'NONE',  ( -0.0000000000000000000, -1.000000000000000000, -0.0000000000000000000 ) ) ;
#153 = DIRECTION ( 'NONE',  ( 0.0000000000000000000, 1.000000000000000000, 0.0000000000000000000 ) ) ;
#154 = DIRECTION ( 'NONE',  ( 0.0000000000000000000, 0.0000000000000000000, 1.000000000000000000 ) ) ;
#155 = CARTESIAN_POINT ( 'NONE',  ( 0.0000000000000000000, 0.0000000000000000000, 0.0000000000000000000 ) ) ;
#156 = DIRECTION ( 'NONE',  ( 0.0000000000000000000, 0.0000000000000000000, -1.000000000000000000 ) ) ;
#157 = DIRECTION ( 'NONE',  ( 0.0000000000000000000, 1.000000000000000000, 0.0000000000000000000 ) ) ;
#158 = DIRECTION ( 'NONE',  ( 0.0000000000000000000, 0.0000000000000000000, 1.000000000000000000 ) ) ;
#159 = DIRECTION ( 'NONE',  ( 0.0000000000000000000, -1.000000000000000000, 0.0000000000000000000 ) ) ;
#160 = CARTESIAN_POINT ( 'NONE',  ( 0.0000000000000000000, 1.000000000000000000, -0.2999999999999999300 ) ) ;
#161 = CARTESIAN_POINT ( 'NONE',  ( 3.673940397442058900E-017, 1.000000000000000000, 0.2999999999999999300 ) ) ;
#162 = CARTESIAN_POINT ( 'NONE',  ( 3.061616997868383000E-017, 0.0000000000000000000, 0.2500000000000000000 ) ) ;
#163 = DIRECTION ( 'NONE',  ( 0.0000000000000000000, -1.000000000000000000, 0.0000000000000000000 ) ) ;
#164 = CARTESIAN_POINT ( 'NONE',  ( 3.061616997868383000E-017, 0.2500000000000000000, 0.2500000000000000000 ) ) ;
#165 = CARTESIAN_POINT ( 'NONE',  ( 0.0000000000000000000, 1.000000000000000000, -0.2999999999999999300 ) ) ;
#166 = PLANE ( 'NONE',  #39 ) ;
#167 = CARTESIAN_POINT ( 'NONE',  ( 0.0000000000000000000, 1.000000000000000000, 0.0000000000000000000 ) ) ;
#168 = APPROVAL_ROLE ( '' ) ;
#169 = APPROVAL_ROLE ( '' ) ;
#170 = ORIENTED_EDGE ( 'NONE', *, *, #321, .T. ) ;
#171 = ORIENTED_EDGE ( 'NONE', *, *, #322, .T. ) ;
#172 = FACE_OUTER_BOUND ( 'NONE', #229, .T. ) ;
#173 = ORIENTED_EDGE ( 'NONE', *, *, #328, .F. ) ;
#174 = ORIENTED_EDGE ( 'NONE', *, *, #323, .T. ) ;
#175 = ORIENTED_EDGE ( 'NONE', *, *, #41, .T. ) ;
#176 = EDGE_LOOP ( 'NONE', ( #239, #170, #192, #296 ) ) ;
#177 = CALENDAR_DATE ( 2012, 7, 2 ) ;
#178 = ORIENTED_EDGE ( 'NONE', *, *, #314, .F. ) ;
#179 = PERSON_AND_ORGANIZATION ( #332, #194 ) ;
#180 = EDGE_LOOP ( 'NONE', ( #255, #306, #244, #285 ) ) ;
#181 = ORIENTED_EDGE ( 'NONE', *, *, #326, .T. ) ;
#182 = ORIENTED_EDGE ( 'NONE', *, *, #316, .F. ) ;
#183 = ORIENTED_EDGE ( 'NONE', *, *, #319, .F. ) ;
#184 = CALENDAR_DATE ( 2012, 7, 2 ) ;
#185 = ORIENTED_EDGE ( 'NONE', *, *, #324, .F. ) ;
#186 = PERSON_AND_ORGANIZATION ( #332, #194 ) ;
#187 = SHAPE_DEFINITION_REPRESENTATION ( #310, #330 ) ;
#188 = ORIENTED_EDGE ( 'NONE', *, *, #328, .T. ) ;
#189 = VERTEX_POINT ( 'NONE', #130 ) ;
#190 = VERTEX_POINT ( 'NONE', #164 ) ;
#191 = ORIENTED_EDGE ( 'NONE', *, *, #319, .T. ) ;
#192 = ORIENTED_EDGE ( 'NONE', *, *, #315, .F. ) ;
#193 = EDGE_LOOP ( 'NONE', ( #175, #302 ) ) ;
#194 = ORGANIZATION ( 'UNSPECIFIED', 'UNSPECIFIED', '' ) ;
#195 = DATE_AND_TIME ( #184, #202 ) ;
#196 = EDGE_LOOP ( 'NONE', ( #266, #222 ) ) ;
#197 = FACE_BOUND ( 'NONE', #249, .T. ) ;
#198 = COORDINATED_UNIVERSAL_TIME_OFFSET ( 6, 0, .BEHIND. ) ;
#199 = CYLINDRICAL_SURFACE ( 'NONE', #8, 0.2999999999999999300 ) ;
#200 = CIRCLE ( 'NONE', #19, 0.1555000000000000300 ) ;
#201 = FACE_OUTER_BOUND ( 'NONE', #176, .T. ) ;
#202 = LOCAL_TIME ( 13, 20, 31.00000000000000000, #220 ) ;
#203 = CIRCLE ( 'NONE', #23, 0.1555000000000000300 ) ;
#204 = APPROVAL_DATE_TIME ( #273, #31 ) ;
#205 = CYLINDRICAL_SURFACE ( 'NONE', #3, 0.2500000000000000000 ) ;
#206 = CALENDAR_DATE ( 2012, 7, 2 ) ;
#207 = ORIENTED_EDGE ( 'NONE', *, *, #320, .T. ) ;
#208 = EDGE_LOOP ( 'NONE', ( #300, #219, #295, #182 ) ) ;
#209 = EDGE_LOOP ( 'NONE', ( #213, #185 ) ) ;
#210 = FACE_OUTER_BOUND ( 'NONE', #180, .T. ) ;
#211 = ORIENTED_EDGE ( 'NONE', *, *, #313, .F. ) ;
#212 = VERTEX_POINT ( 'NONE', #98 ) ;
#213 = ORIENTED_EDGE ( 'NONE', *, *, #320, .F. ) ;
#214 = DATE_AND_TIME ( #304, #235 ) ;
#215 = PERSON_AND_ORGANIZATION ( #332, #194 ) ;
#216 = VERTEX_POINT ( 'NONE', #71 ) ;
#217 = FACE_BOUND ( 'NONE', #227, .T. ) ;
#218 = LENGTH_MEASURE_WITH_UNIT ( LENGTH_MEASURE( 0.02539999999999999900 ), #90 );
#219 = ORIENTED_EDGE ( 'NONE', *, *, #313, .T. ) ;
#220 = COORDINATED_UNIVERSAL_TIME_OFFSET ( 6, 0, .BEHIND. ) ;
#221 = PERSON_AND_ORGANIZATION ( #332, #194 ) ;
#222 = ORIENTED_EDGE ( 'NONE', *, *, #325, .T. ) ;
#223 = PERSON_AND_ORGANIZATION ( #332, #194 ) ;
#224 = CLOSED_SHELL ( 'NONE', ( #46, #52, #49, #47, #45, #50, #53, #51, #48 ) ) ;
#225 = LOCAL_TIME ( 13, 20, 31.00000000000000000, #237 ) ;
#226 = CALENDAR_DATE ( 2012, 7, 2 ) ;
#227 = EDGE_LOOP ( 'NONE', ( #188, #252 ) ) ;
#228 = PERSON_AND_ORGANIZATION ( #332, #194 ) ;
#229 = EDGE_LOOP ( 'NONE', ( #207, #174, #178, #183 ) ) ;
#230 = ORIENTED_EDGE ( 'NONE', *, *, #326, .F. ) ;
#231 = FACE_OUTER_BOUND ( 'NONE', #308, .T. ) ;
#232 = VERTEX_POINT ( 'NONE', #165 ) ;
#233 = APPROVAL_PERSON_ORGANIZATION ( #303, #43, #101 ) ;
#234 = VERTEX_POINT ( 'NONE', #100 ) ;
#235 = LOCAL_TIME ( 13, 20, 31.00000000000000000, #290 ) ;
#236 = FACE_BOUND ( 'NONE', #209, .T. ) ;
#237 = COORDINATED_UNIVERSAL_TIME_OFFSET ( 6, 0, .BEHIND. ) ;
#238 = ORIENTED_EDGE ( 'NONE', *, *, #312, .F. ) ;
#239 = ORIENTED_EDGE ( 'NONE', *, *, #317, .F. ) ;
#240 = EDGE_LOOP ( 'NONE', ( #309, #171 ) ) ;
#241 = ORIENTED_EDGE ( 'NONE', *, *, #327, .T. ) ;
#242 = ORIENTED_EDGE ( 'NONE', *, *, #325, .F. ) ;
#243 = ORIENTED_EDGE ( 'NONE', *, *, #323, .F. ) ;
#244 = ORIENTED_EDGE ( 'NONE', *, *, #318, .T. ) ;
#245 = FACE_OUTER_BOUND ( 'NONE', #193, .T. ) ;
#246 = DATE_AND_TIME ( #226, #247 ) ;
#247 = LOCAL_TIME ( 13, 20, 31.00000000000000000, #279 ) ;
#248 = VERTEX_POINT ( 'NONE', #146 ) ;
#249 = EDGE_LOOP ( 'NONE', ( #230, #211 ) ) ;
#250 = VERTEX_POINT ( 'NONE', #118 ) ;
#251 = PERSON_AND_ORGANIZATION ( #332, #194 ) ;
#252 = ORIENTED_EDGE ( 'NONE', *, *, #316, .T. ) ;
#253 = ORIENTED_EDGE ( 'NONE', *, *, #324, .T. ) ;
#254 = EDGE_LOOP ( 'NONE', ( #181, #241, #173, #238 ) ) ;
#255 = ORIENTED_EDGE ( 'NONE', *, *, #321, .F. ) ;
#256 = LOCAL_TIME ( 13, 20, 31.00000000000000000, #198 ) ;
#257 = CYLINDRICAL_SURFACE ( 'NONE', #24, 0.2999999999999999300 ) ;
#258 = VERTEX_POINT ( 'NONE', #99 ) ;
#259 = VERTEX_POINT ( 'NONE', #162 ) ;
#260 = LINE ( 'NONE', #132, #284 ) ;
#261 = VECTOR ( 'NONE', #83, 39.37007874015748100 ) ;
#262 = CIRCLE ( 'NONE', #17, 0.2999999999999999300 ) ;
#263 = LINE ( 'NONE', #61, #298 ) ;
#264 = LINE ( 'NONE', #160, #267 ) ;
#265 = CIRCLE ( 'NONE', #16, 0.2500000000000000000 ) ;
#266 = ORIENTED_EDGE ( 'NONE', *, *, #314, .T. ) ;
#267 = VECTOR ( 'NONE', #74, 39.37007874015748100 ) ;
#268 = CIRCLE ( 'NONE', #4, 0.2999999999999999300 ) ;
#269 = CIRCLE ( 'NONE', #20, 0.2500000000000000000 ) ;
#270 = APPROVAL_DATE_TIME ( #281, #43 ) ;
#271 = VECTOR ( 'NONE', #57, 39.37007874015748100 ) ;
#272 = CYLINDRICAL_SURFACE ( 'NONE', #2, 0.1555000000000000300 ) ;
#273 = DATE_AND_TIME ( #177, #225 ) ;
#274 = CIRCLE ( 'NONE', #40, 0.2999999999999999900 ) ;
#275 = CYLINDRICAL_SURFACE ( 'NONE', #42, 0.1555000000000000300 ) ;
#276 = VERTEX_POINT ( 'NONE', #161 ) ;
#277 = LINE ( 'NONE', #128, #271 ) ;
#278 = FACE_OUTER_BOUND ( 'NONE', #208, .T. ) ;
#279 = COORDINATED_UNIVERSAL_TIME_OFFSET ( 6, 0, .BEHIND. ) ;
#280 = FACE_OUTER_BOUND ( 'NONE', #240, .T. ) ;
#281 = DATE_AND_TIME ( #206, #256 ) ;
#282 = FACE_OUTER_BOUND ( 'NONE', #254, .T. ) ;
#283 = CIRCLE ( 'NONE', #26, 0.1555000000000000300 ) ;
#284 = VECTOR ( 'NONE', #129, 39.37007874015748100 ) ;
#285 = ORIENTED_EDGE ( 'NONE', *, *, #322, .F. ) ;
#286 = APPROVAL_DATE_TIME ( #246, #25 ) ;
#287 = APPROVAL_PERSON_ORGANIZATION ( #179, #25, #168 ) ;
#288 = LINE ( 'NONE', #92, #291 ) ;
#289 = CIRCLE ( 'NONE', #14, 0.2500000000000000000 ) ;
#290 = COORDINATED_UNIVERSAL_TIME_OFFSET ( 6, 0, .BEHIND. ) ;
#291 = VECTOR ( 'NONE', #78, 39.37007874015748100 ) ;
#292 = FACE_OUTER_BOUND ( 'NONE', #196, .T. ) ;
#293 = CIRCLE ( 'NONE', #18, 0.2500000000000000000 ) ;
#294 = CIRCLE ( 'NONE', #10, 0.1555000000000000300 ) ;
#295 = ORIENTED_EDGE ( 'NONE', *, *, #312, .T. ) ;
#296 = ORIENTED_EDGE ( 'NONE', *, *, #318, .F. ) ;
#297 = LINE ( 'NONE', #127, #261 ) ;
#298 = VECTOR ( 'NONE', #79, 39.37007874015748100 ) ;
#299 = CIRCLE ( 'NONE', #12, 0.2999999999999999900 ) ;
#300 = ORIENTED_EDGE ( 'NONE', *, *, #327, .F. ) ;
#301 = APPROVAL_PERSON_ORGANIZATION ( #186, #31, #169 ) ;
#302 = ORIENTED_EDGE ( 'NONE', *, *, #317, .T. ) ;
#303 = PERSON_AND_ORGANIZATION ( #332, #194 ) ;
#304 = CALENDAR_DATE ( 2012, 7, 2 ) ;
#305 = CYLINDRICAL_SURFACE ( 'NONE', #38, 0.2500000000000000000 ) ;
#306 = ORIENTED_EDGE ( 'NONE', *, *, #41, .F. ) ;
#307 = VERTEX_POINT ( 'NONE', #109 ) ;
#308 = EDGE_LOOP ( 'NONE', ( #243, #253, #191, #242 ) ) ;
#309 = ORIENTED_EDGE ( 'NONE', *, *, #315, .T. ) ;
#310 = PRODUCT_DEFINITION_SHAPE ( 'NONE', 'NONE',  #32 ) ;
#311 = DESIGN_CONTEXT ( 'detailed design', #138, 'design' ) ;
#312 = EDGE_CURVE ( 'NONE', #189, #250, #277, .T. ) ;
#313 = EDGE_CURVE ( 'NONE', #258, #189, #203, .T. ) ;
#314 = EDGE_CURVE ( 'NONE', #248, #259, #269, .T. ) ;
#315 = EDGE_CURVE ( 'NONE', #234, #212, #274, .T. ) ;
#316 = EDGE_CURVE ( 'NONE', #216, #250, #200, .T. ) ;
#317 = EDGE_CURVE ( 'NONE', #276, #232, #262, .T. ) ;
#318 = EDGE_CURVE ( 'NONE', #232, #234, #264, .T. ) ;
#319 = EDGE_CURVE ( 'NONE', #307, #248, #263, .T. ) ;
#320 = EDGE_CURVE ( 'NONE', #307, #190, #265, .T. ) ;
#321 = EDGE_CURVE ( 'NONE', #276, #212, #297, .T. ) ;
#322 = EDGE_CURVE ( 'NONE', #212, #234, #299, .T. ) ;
#323 = EDGE_CURVE ( 'NONE', #190, #259, #288, .T. ) ;
#324 = EDGE_CURVE ( 'NONE', #190, #307, #289, .T. ) ;
#325 = EDGE_CURVE ( 'NONE', #259, #248, #293, .T. ) ;
#326 = EDGE_CURVE ( 'NONE', #189, #258, #294, .T. ) ;
#327 = EDGE_CURVE ( 'NONE', #258, #216, #260, .T. ) ;
#328 = EDGE_CURVE ( 'NONE', #250, #216, #283, .T. ) ;
#329 = UNCERTAINTY_MEASURE_WITH_UNIT (LENGTH_MEASURE( 1.000000000000000100E-005 ), #89, 'distance_accuracy_value', 'NONE');
#330 = ADVANCED_BREP_SHAPE_REPRESENTATION ( 'D1200234-v1', ( #1, #34 ), #28 ) ;
#331 = PRODUCT ( 'D1200234-v1', 'D1200234-v1', '', ( #66 ) ) ;
#332 = PERSON ( 'UNSPECIFIED', 'UNSPECIFIED', 'UNSPECIFIED', ('UNSPECIFIED'), ('UNSPECIFIED'), ('UNSPECIFIED') ) ;
ENDSEC;
END-ISO-10303-21;
